Song name
# A B C D E F G H I J K L M N O P Q R S T U V W X Y Z

Afi - Open Your Eyes tab

              Open Your Eyes                 


                                          AFI
Guitar



      W                   W                 
E||--------------------|-------------------|
B||--------------------|-------------------|
G||*-------------------|-------------------|
D||*-------------------|-------------------|
A||--------------------|-------------------|
E||--------------------|-------------------|


  W                   W                 
-------------------|-------------------|
-------------------|-------------------|
-------------------|-------------------|
-------------------|-------------------|
-------------------|-------------------|
-------------------|-------------------|


                         NH                
  W                      W                 
-------------------|--<>12----------------|
-------------------|----------------------|
-------------------|----------------------|
-------------------|----------------------|
-------------------|----------------------|
-------------------|----------------------|


   W                    W                 
---L----------------|---L----------------|
--------------------|--------------------|
--------------------|--------------------|
--------------------|--------------------|
--------------------|--------------------|
--------------------|--------------------|


  E  E  S S S S S S S E  S S S  
-------------------------------|
-------------------------------|
-------------------------------|
--2--2--L-2-2-2-5-5-5-7--L-4---|
--2--2--L-2-2-2-5-5-5-7--L-4---|
--0--0--L-0-0-0-3-3-3-5--L-2---|


  E  E  S S S S S S S S S S S S  
--------------------------------|
--------------------------------|
--------------------------------|
--5--5--L-5-5-5-4-4-4-5-5-5-4-4-|
--5--5--L-5-5-5-4-4-4-5-5-5-4-4-|
--3--3--L-3-3-3-2-2-2-3-3-3-2-2-|


  E  E  S S S S S S S E  S S S  
-------------------------------|
-------------------------------|
-------------------------------|
--2--2--L-2-2-2-5-5-5-7--L-4---|
--2--2--L-2-2-2-5-5-5-7--L-4---|
--0--0--L-0-0-0-3-3-3-5--L-2---|


  E  E  S S S S S S S E  S S S  
-------------------------------|
-------------------------------|
-------------------------------|
--5--5--L-5-5-5-7-7-7-9--L-9---|
--5--5--L-5-5-5-7-7-7-9--L-9---|
--3--3--L-3-3-3-5-5-5-7--L-7---|


  E  E  S S S S S S S E  S S S  
-------------------------------|
-------------------------------|
-------------------------------|
-----2--L-2-2-2-5-5-5-7--L-4---|
-----2--L-2-2-2-5-5-5-7--L-4---|
-----0--L-0-0-0-3-3-3-5--L-2---|


  E  E  S S S S S S S S S S S S  
--------------------------------|
--------------------------------|
--------------------------------|
--5--5--L-5-5-5-4-4-4-5-5-5-4-4-|
--5--5--L-5-5-5-4-4-4-5-5-5-4-4-|
--3--3--L-3-3-3-2-2-2-3-3-3-2-2-|


  E  E  S S S S S S S E  S S S  
-------------------------------|
-------------------------------|
-------------------------------|
--2--2--L-2-2-2-5-5-5-7--L-4---|
--2--2--L-2-2-2-5-5-5-7--L-4---|
--0--0--L-0-0-0-3-3-3-5--L-2---|


  E  E  S S S S S S S E  S E   
------------------------------|
------------------------------|
------------------------------|
--5--5--L-5-5-5-7-7-7-9--L-9--|
--5--5--L-5-5-5-7-7-7-9--L-9--|
--3--3--L-3-3-3-5-5-5-7--L-7--|


  E  E  S S S E  S E  S S S S  
------------------------------|
------------------------------|
------------------------------|
--5--5--5-5-5-7--L-7--7-7-7-7-|
--5--5--5-5-5-7--L-7--7-7-7-7-|
--3--3--3-3-3-5--L-5--5-5-5-5-|


   S   S  E   S   S  E   S   S  E   S   S  E 
--(x)-(x)----(x)-(x)----(x)-(x)----(x)-(x)---
--(x)-(x)----(x)-(x)----(x)-(x)----(x)-(x)---
--(x)-(x)-9--(x)-(x)-9--(x)-(x)-9--(x)-(x)-9-
--(x)-(x)-9--(x)-(x)-9--(x)-(x)-9--(x)-(x)-9-
--(x)-(x)-7--(x)-(x)-7--(x)-(x)-7--(x)-(x)-7-
--(x)-(x)----(x)-(x)----(x)-(x)----(x)-(x)---


  E  E  S S S E  S E  S S S S  
------------------------------|
------------------------------|
------------------------------|
--5--5--5-5-5-7--L-7--7-7-7-7-|
--5--5--5-5-5-7--L-7--7-7-7-7-|
--3--3--3-3-3-5--L-5--5-5-5-5-|


   S   S   S  E  S E   S   S   S  E  S E   
--(x)-(x)-(x)---------(x)-(x)-(x)---------|
--(x)-(x)-(x)---------(x)-(x)-(x)---------|
--(x)-(x)-(x)-9----9--(x)-(x)-(x)-9----9--|
--(x)-(x)-(x)-9----9--(x)-(x)-(x)-9----9--|
--(x)-(x)-(x)-7----7--(x)-(x)-(x)-7----7--|
--(x)-(x)-(x)---------(x)-(x)-(x)---------|


  E  E  S S S E  S E  S S S S  
------------------------------|
------------------------------|
------------------------------|
--5--5--5-5-5-7--L-7--7-7-7-7-|
--5--5--5-5-5-7--L-7--7-7-7-7-|
--3--3--3-3-3-5--L-5--5-5-5-5-|


   S   S  E   S   S  E   S   S  E   S   S  E 
--(x)-(x)----(x)-(x)----(x)-(x)----(x)-(x)---
--(x)-(x)----(x)-(x)----(x)-(x)----(x)-(x)---
--(x)-(x)-9--(x)-(x)-9--(x)-(x)-9--(x)-(x)-9-
--(x)-(x)-9--(x)-(x)-9--(x)-(x)-9--(x)-(x)-9-
--(x)-(x)-7--(x)-(x)-7--(x)-(x)-7--(x)-(x)-7-
--(x)-(x)----(x)-(x)----(x)-(x)----(x)-(x)---


  E  E  S S S E  S E  S S S S  
------------------------------|
------------------------------|
------------------------------|
--5--5--5-5-5-7--L-7--7-7-7-7-|
--5--5--5-5-5-7--L-7--7-7-7-7-|
--3--3--3-3-3-5--L-5--5-5-5-5-|


  S S S S S S S S Q     Q     
-----------------------------|
-----------------------------|
--9-9-9-9-9-9-9-9-9\---------|
--9-9-9-9-9-9-9-9-9\---------|
--7-7-7-7-7-7-7-7-7\---------|
-----------------------------|


  E  E  S S S S S S S E  S S S  
-------------------------------|
-------------------------------|
-------------------------------|
--2--2--L-2-2-2-5-5-5-7--L-4---|
--2--2--L-2-2-2-5-5-5-7--L-4---|
--0--0--L-0-0-0-3-3-3-5--L-2---|


  E  E  S S S S S S S S S S S S  
--------------------------------|
--------------------------------|
--------------------------------|
--5--5--L-5-5-5-4-4-4-5-5-5-4-4-|
--5--5--L-5-5-5-4-4-4-5-5-5-4-4-|
--3--3--L-3-3-3-2-2-2-3-3-3-2-2-|


  E  E  S S S S S S S E  S S S  
-------------------------------|
-------------------------------|
-------------------------------|
--2--2--L-2-2-2-5-5-5-7--L-4---|
--2--2--L-2-2-2-5-5-5-7--L-4---|
--0--0--L-0-0-0-3-3-3-5--L-2---|


  E  E  S S S S S S S E  S S S  
-------------------------------|
-------------------------------|
-------------------------------|
--5--5--L-5-5-5-7-7-7-9--L-9---|
--5--5--L-5-5-5-7-7-7-9--L-9---|
--3--3--L-3-3-3-5-5-5-7--L-7---|


  E  E  S S S S S S S E  S S S  
-------------------------------|
-------------------------------|
-------------------------------|
-----2--L-2-2-2-5-5-5-7--L-4---|
-----2--L-2-2-2-5-5-5-7--L-4---|
-----0--L-0-0-0-3-3-3-5--L-2---|


  E  E  S S S S S S S S S S S S  
--------------------------------|
--------------------------------|
--------------------------------|
--5--5--L-5-5-5-4-4-4-5-5-5-4-4-|
--5--5--L-5-5-5-4-4-4-5-5-5-4-4-|
--3--3--L-3-3-3-2-2-2-3-3-3-2-2-|


  E  E  S S S S S S S E  S S S  
-------------------------------|
-------------------------------|
-------------------------------|
--2--2--L-2-2-2-5-5-5-7--L-4---|
--2--2--L-2-2-2-5-5-5-7--L-4---|
--0--0--L-0-0-0-3-3-3-5--L-2---|


  E  E  S S S S S S S E  S E   
------------------------------|
------------------------------|
------------------------------|
--5--5--L-5-5-5-7-7-7-9--L-9--|
--5--5--L-5-5-5-7-7-7-9--L-9--|
--3--3--L-3-3-3-5-5-5-7--L-7--|


  E  E  S S S E  S E  S S S S  
------------------------------|
------------------------------|
------------------------------|
--5--5--5-5-5-7--L-7--7-7-7-7-|
--5--5--5-5-5-7--L-7--7-7-7-7-|
--3--3--3-3-3-5--L-5--5-5-5-5-|


   S   S  E   S   S  E   S   S  E   S   S  E 
--(x)-(x)----(x)-(x)----(x)-(x)----(x)-(x)---
--(x)-(x)----(x)-(x)----(x)-(x)----(x)-(x)---
--(x)-(x)-9--(x)-(x)-9--(x)-(x)-9--(x)-(x)-9-
--(x)-(x)-9--(x)-(x)-9--(x)-(x)-9--(x)-(x)-9-
--(x)-(x)-7--(x)-(x)-7--(x)-(x)-7--(x)-(x)-7-
--(x)-(x)----(x)-(x)----(x)-(x)----(x)-(x)---


  E  E  S S S E  S E  S S S S  
------------------------------|
------------------------------|
------------------------------|
--5--5--5-5-5-7--L-7--7-7-7-7-|
--5--5--5-5-5-7--L-7--7-7-7-7-|
--3--3--3-3-3-5--L-5--5-5-5-5-|


   S   S   S  E  S E   S   S   S  E  S E   
--(x)-(x)-(x)---------(x)-(x)-(x)---------|
--(x)-(x)-(x)---------(x)-(x)-(x)---------|
--(x)-(x)-(x)-9----9--(x)-(x)-(x)-9----9--|
--(x)-(x)-(x)-9----9--(x)-(x)-(x)-9----9--|
--(x)-(x)-(x)-7----7--(x)-(x)-(x)-7----7--|
--(x)-(x)-(x)---------(x)-(x)-(x)---------|


  E  E  S S S E  S E  S S S S  
------------------------------|
------------------------------|
------------------------------|
--5--5--5-5-5-7--L-7--7-7-7-7-|
--5--5--5-5-5-7--L-7--7-7-7-7-|
--3--3--3-3-3-5--L-5--5-5-5-5-|


   S   S  E   S   S  E   S   S  E   S   S  E 
--(x)-(x)----(x)-(x)----(x)-(x)----(x)-(x)---
--(x)-(x)----(x)-(x)----(x)-(x)----(x)-(x)---
--(x)-(x)-9--(x)-(x)-9--(x)-(x)-9--(x)-(x)-9-
--(x)-(x)-9--(x)-(x)-9--(x)-(x)-9--(x)-(x)-9-
--(x)-(x)-7--(x)-(x)-7--(x)-(x)-7--(x)-(x)-7-
--(x)-(x)----(x)-(x)----(x)-(x)----(x)-(x)---


  E  E  S S S E  S E  S S S S  
------------------------------|
------------------------------|
------------------------------|
--5--5--5-5-5-7--L-7--7-7-7-7-|
--5--5--5-5-5-7--L-7--7-7-7-7-|
--3--3--3-3-3-5--L-5--5-5-5-5-|


  S S S S S S S S Q     Q              
-----------------------------|-------||
-----------------------------|-------||
--9-9-9-9-9-9-9-9-9\---------|-------||
--9-9-9-9-9-9-9-9-9\---------|-------||
--7-7-7-7-7-7-7-7-7\---------|-------||
-----------------------------|-------||




Duration Legend
---------------
W - whole
H - half
Q - quarter
E - 8th
S - 16th
T - 32nd
X - 64th
. - note dotted
|-n-|  - n-tuplets


Tablature Legend
----------------
L - tied note
x - dead note
g - grace note
(n) - ghost note
> - accentuded note
NH - natural harmonic
AH - artificial harmonic
TH - tapped harmonic
SH - semi harmonic
PH - pitch harmonic
h - hammer on
p - pull off
b - bend
br - bendRelease
pb - preBend
pbr - preBendRelease
brb - bendReleaseBend
\n/ - tremolo bar dip
\n - tremolo bar dive
-/n - tremolo bar Release up
/n\ - tremolo bar inverted dip
/n - tremolo bar return
-\n - tremolo bar Release down
S - shift slide
s - legato slide
/ -  slide into from below or out of upwards
\ -  slide into from above or out of downwards
~ - vibrato
W - wide vibrato
tr - trill
TP - tremolo picking
T - tapping
S - slap
P - pop
< - fade in
^ - brush up
v - brush down
Tap to rate this tab
# A B C D E F G H I J K L M N O P Q R S T U V W X Y Z