Afi - I Am Trying Very Hard To Be Here tab

A Fire Inside
I Am Trying Very Hard to Be Here


INTRO
---------------------------------------------------------|
---------------------------------------------------------|
-4----2---2^44-4----2---2^44-4----2---2^44-7-x-x-x-7-xxx-|
-------------------------------------------7-x-x-x-7-xxx-|
---22---2--------22---2--------22---2------5-5-5-5-4-444-|
---------------------------------------------------------|


INTRO
---------------------------------------------------------|
-----------------------------3---------------------------|
-4----2---2^44-4----2---2^44-4----2---2^44-7-x-x-x-9-xxx-|
-------------------------------------------7-x-x-x-x-xxx-|
---22---2--------22---2--------22---2------5-5-5-5-7-777-|
---------------------------------------------------------|



VERSE 1
---------------------------------------------------------|
---------------------------------------------------------|
-4----2---2^44-4----2---2^44-4----2---2^44-7-x-x-x-7-xxx-|
---==---=--------==---=--------==---=------7-x-x-x-7-xxx-|
---22---2--------22---2--------22---2------5-5-5-5-4-444-|
---------------------------------------------------------|


VERSE 1
---------------------------------------------------------|
-----------------------------3---------------------------|
-4----2---2^44-4----2---2^44-4----2---2^44-7-x-x-x-9-999-|
---==---=--------==---=--------==---=------7-x-x-x-x-xxx-|
---22---2--------22---2--------22---2------5-5-5-5-7-777-|
---------------------------------------------------------|


PRE-CHORUS
-------------------------------------------------------------7777--|
--------------------7-77-7-7---------------------------------7777--|
-44---4-4--22---2-2-7-77-7-7-999-11-11-11-12-12-12-11-11-11\-7777--|
-44---4-4--22---2-2-7-77-7-7-xxx--x--x--x--x--x--x--x--x--x--9999--|
-22-2-2-2--00-0-0-0-5-55-5-5-777--9--9--9-10-10-10--9--9--9\-9999--|
----2---------0-----5-55-5-5---------------------------------7777--|



PRE-CHORUS
-5555-------------------------------------------|
-5555-------------------------------------------|
-6666------12-12-12-12-12-12-11-11-11-11-11-11--|
-7777-6666--x--x--x--x--x--x--x--x--x--x--x--x--|
-7777-6666-10-10-10-10-10-10--9--9--9--9--9--9--|
-5555-4444--------------------------------------|



CHORUS
-----------------------------------------------------------|
-----------------------------------------------------------|
------------------------------------7777-9--QUICK----------|
-9999-5555-2222-777-8--999-7-5-5-5--7777-9--REST-----------|
-9999-5555-2222-777-8--999-7-5-5-5--5555-7-----------------|
-7777-3333-0000-555-6--777-5-3-3-3--5555-------------------|



VERSE 2 Intro
---------------------------------------------------------|
-----------------------------3---------------------------|
-4----2---2^44-4----2---2^44-4----2---2^44-7-x-x-x-7-xxx-|
---==---=--------==---=--------==---=------7-x-x-x-7-xxx-|
---22---2--------22---2--------22---2------5-5-5-5-4-444-|
---------------------------------------------------------|


VERSE 2
--------------------------------------------------|
--------------------------------------------------|
-4-xx-xx-xxx--x-xx-xx-xxx-x-xx-xx-xxx-7-----7-----|
-x-xx-xx-xxx--x-xx-xx-xxx-x-xx-xx-xxx-7-xxx-7-xxx-|
-2-22-22-222--2-22-22-222-2-22-22-222-5-xxx-4-xxx-|
---==-==-===--=-==-==-===-=-==-==-===-------------|
   PM


VERSE 2
-----------------------------------------------|
3-----------3-----------3----------------------|
4-xx-xx-xxx-4-xx-xx-xxx-4-xx-xx-xxx-7-----9-9--|
--xx-xx-xxx---xx-xx-xxx---xx-xx-xxx-7-xxx-x-x--|
--22-22-222---22-22-222---22-22-222-5-xxx-7-7--|
--==-==-===---==-==-===---==-==-===------------|



PRE-CHORUS
-------------------------------------------------------------7777--|
--------------------7-77-7-7---------------------------------7777--|
-44---4-4--22---2-2-7-77-7-7-999-11-11-11-12-12-12-11-11-11\-7777--|
-44---4-4--22---2-2-7-77-7-7-xxx--x--x--x--x--x--x--x--x--x--9999--|
-22-2-2-2--00-0-0-0-5-55-5-5-777--9--9--9-10-10-10--9--9--9\-9999--|
----2---------0-----5-55-5-5---------------------------------7777--|


PRE-CHORUS
-5555-------------------------------------------|
-5555-------------------------------------------|
-6666------12-12-12-12-12-12-11-11-11-11-11-11--|
-7777-6666--x--x--x--x--x--x--x--x--x--x--x--x--|
-7777-6666-10-10-10-10-10-10--9--9--9--9--9--9--|
-5555-4444--------------------------------------|



CHORUS
------------------------------------------------------|
-----------------------------------------777777777777-|
------------------------------------7777-666666666666-|
-9999-5555-2222-777-8--999-7-5-5-5--7777-444444444444-|
-9999-5555-2222-777-8--999-7-5-5-5--5555--------------|
-7777-3333-0000-555-6--777-5-3-3-3--5555--------------|


BRIDGE,3Xs                    fig a
|---------------------------|----------------------------------------|
|:-------------------------:|----------------------------------------|
|------9-----9-5-55---------|-----9-----9-5-55-------------------7-7-|
|--xxx-9-xxx-9-5-55-5-55x---|-xxx-9-xxx-9-5-55-5-7-9-9--9--9-5-5-7-7-|
|:-xxx-7-xxx-7-3-33-5-55x--:|-xxx-7-xxx-7-3-33-5-7-9x9-x9-x9-5-5-5-5-|
|--000---000--------3-33x---|-000---000--------3-5-7x7-x7-x7-3-3-----|
   ===   ===                  ===   ===
   PM


Fig. b, guitar one
----------------------------------------|
-------------------------888888777777---|
-------------------------xxxxxxxxxxxx---|
-9--9--9--9--5-5-4-4-4-4-555555444444-9-|
-9-x9-x9-x9--5-5-4-4-4-4--------------9-|
-7-x7-x7-x7--3-3-2-2-2-2--------------7-|


Fig. b, guitar two
-777-999-10-10-10-999-777777-10-10-10-10-10-10-777-999-10-10-10-999----|
-777-777--7--7--7-777-777777--7--7--7--7--7--7-777-777--7--7--7-777----|
-----------------------------------------------------------------------|
-----------------------------------------------------------------------|
-----------------------------------------------------------------------|
-----------------------------------------------------------------------|


Fig. b, guitar two
-777777-666666666666666666666666----|
-777777-777777777777777777777777----|
------------------------------------|
---------------------------------9--|
------------------------------------|
---------------------------------7--|



---------------------------------------------------------|
---------------------------------------------------------|
-4----2---2^44-4----2---2^44-4----2---2^44-4-------------|
---------------------------------------------------------|
---22---2--------22---2--------22---2--------------------|
---------------------------------------------------------|



CHORUS
------------------------------------------------------------------------|
------------------------------------------------------------------------|
------------------------------------7777-999-11-11-11-12-12-12-14-14-14-|
-9999-5555-2222-777-8--999-7-5-5-5--7777-xxx--x--x--x--x--x--x--x--x--x-|
-9999-5555-2222-777-8--999-7-5-5-5--5555-777--9--9--9-10-10-10-12-12-12-|
-7777-3333-0000-555-6--777-5-3-3-3--5555--------------------------------|




CHORUS
-----------------------------------------------------------|
-----------------------------------------------------------|
------------------------------------7777-9--QUICK----------|
-9999-5555-2222-777-8--999-7-5-5-5--7777-9--REST-----------|
-9999-5555-2222-777-8--999-7-5-5-5--5555-7-----------------|
-7777-3333-0000-555-6--777-5-3-3-3--5555-------------------|



---------------------------------------------------------|
-------------------------------------------3-------------|
-4----2---2^44-4----2---2^44-4----2---2^44-4-------------|
---------------------------------------------------------|
---22---2--------22---2--------22---2--------------------|
---------------------------------------------------------|
Tap to rate this tab
 
# A B C D E F G H I J K L M N O P Q R S T U V W X Y Z