Song name
# A B C D E F G H I J K L M N O P Q R S T U V W X Y Z

Afi - Smile tab

This is how Jade says to play the song

Intro: The opening riff is a pick slide done with the opposite hand while
manipulating the Toggle switch. Then the following chords are strummed:

|----------x---|
|---x------x---|
|---x------9---|
|---x------9---|
|---x------7---|
|----------x---|

Verse:
harmonics
|--x--5--x--7--x--5--7--3--5--x--5--x--7--------------------------------7--|
|--x--7--x--9--x--7--9--3--5--x--7--x--9--------------------------------7--|
|--x--7--x--9--x--7--9--4--6--x--7--x--9--------------------------------7--|
|--2--7--2--9--2--7--9--5--7--2--7--2--9-----------------------------------|
|--2--5--2--7--2--5--7--5--7--2--5--2--7---5h7----5h7----5h8----5h7--------|
|--x--5--x--7--x--5--7--3--5--x--5--x---7--------x-------x------x----------|

the rest of the verse is repeated as above except each phrase ends with a
stop on D and then this descending progression into the bridge:

|---6---5---3---|
|---6---5---3---|
|---7---6---4---|
|---8---7---5---|
|---8---7---5---|
|---6---5---3---|

Bridge:

|--x---x------------------|
|--x---x------------------|
|--x---x--10--12---15-----|
|--2----------------------|
|--2-------8--10---13-----|
|--x-------x---x----x-----|

Break:

|--x--3--5--6----8----10----x--x-----|
|--x--3--7--6---10---12---6-(h)-5----|
|--x--4--7--7---10---12--------------|
|--2--5--7--8---10---12--------------|
|--2--5--5--8---8----10--------------|
|--x--3--5--6---8----10--------------|

End:

|-----------------------------------------------------------------------|
|-----------------------------------------------------------------------|
|-----------------------------------------------------------------------|
|-----------------------------------------------------------------------|
|-5h7--5h7--5h8--5h7--7--7--5h7--5h7--5h7--5h8-----5h7------7--7--------|
|-----x----x-----x----x--x--x-----x-----x----x------x---------x--x--x---|

|---7---6---5---3---3---5---x---|
|---9---8---7---5---3---5---x---|
|---9---8---7---5---4---6---x---|
|---9---8---7---5---5---7---2---|
|---7---6---5---3---5---7---2---|
|---7---6---5---3---3---5---x---|
Tap to rate this tab
# A B C D E F G H I J K L M N O P Q R S T U V W X Y Z