Song name
# A B C D E F G H I J K L M N O P Q R S T U V W X Y Z

Afi - The Boy Who Destroyed The World tab

Help us improve GuitareTab! Take a short survey!
The two tabs that were on here didnt have the other part, so i figured out
how to play it. they also didnt have some other bits found in the chords.

Key- ^-- let not hold out
     x--mute string /// or /// stop sound, ex. 5^x,or play the note short 
     b( )--bend string to certain note
     /--slide up
     \--slide down
     .--Palm mute
     *--natural harmonic
     ( )-- optional note that I add
      x\--pick slide


Intro-(Afi tends to use bar chords, and there was a note in the intro that
can be played through a bar chord.)

Fast Tempo

E|-7--7-7-7-7-7-5-5---5-7----7-8--7--7-7-7-7-7-7-8----8--10--10-|
B|-7--7-7-7-7-7-5-5---5-7----7-8--7--7-7-7-7-7-7-8----8--10--10-|
G|-8--8-8-8-8-8-6-6---6-8----8-9--8--8-8-8-8-8-8-9----9--11--11-|
D|-9--9-9-9-9-9-7-7---7-9----9-10-9--9-9-9-9-9-9-10---10-12--12-|
A|-9--9-9-9-9-9-7-7---7-9----9-10-9--9-9-9-9-9-9-10---10-12--12-|
E|-7--7-7-7-7-7-5-5---5-7----7-8--7--7-7-7-7-7-7-8----8--10--10-|

E|-3--3-3-3-3-3--3--3-3-3-3-3---5--5-5-5-5-5--5--5-5-5-5-5------|
B|-3--3-3-3-3-3--3--3-3-3-3-3---7--7-7-7-7-7--5--5-5-5-5-5------|
G|-4--4-4-4-4-4--4--4-4-4-4-4---7--7-7-7-7-7--6--6-6-6-6-6------|
D|-5--5-5-5-5-5--5--5-5-5-5-5---7--7-7-7-7-7--7--7-7-7-7-7------|
A|-5--5-5-5-5-5--5--5-5-5-5-5---5--5-5-5-5-5--7--7-7-7-7-7------|
E|-3--3-3-3-3-3--3--3-3-3-3-3---5--5-5-5-5-5--5--5-5-5-5-5------|

The intro is played two times. the second time play this instead of the above riff. 

E|------------------------------------------------------|
B|---------------------------------------------12^------|
G|-12--12----12/-14--14----14--11\9/11\9---14--14b(16)^-|
D|--x---x-----x---x---x-----x---------------------------|
A|-10--10----10/-12--12----12---------------------------|
E|------------------------------------------------------|

E|-------------------------------------|
B|-----------------------------x\\-----|
G|-----------------------------x\\-----|
D|-0/////------------------------------|
A|-0/////------------------------------|
E|-------------------------------------|



Verse (stay in bar chord form)

E|--------------------|--------------------------------|
B|-------7---8---8-8--|--------------------------------|
G|-------7---7---7-7--|--12--12--12--12----------------|x2-(second time, stop
D|-9-9---9---9---9-9--|--12--12--12--12-12--12-12--12--|  at the line and
A|-9-9^---------------|--10--10--10--10-12--12-12--12--|   go to next riff)
E|-7-7^---------------|-----------------10--10-10--10--|


E|-3--3--3--3-5--5-5-5-5-|
B|-3--3--3--3-7--7-7-7-5-|
G|-4--4--4--4-7--7-7-7-6-|
D|-5--5--5--5-7--7-7-7-7-|
A|-5--5--5--5-5--5-5-5-7-|
E|-3--3--3--3-5--5-5-5-5-|                          


this riff is played  at the end of the second time the verse is played,
then play the verse two more times

E|-----------------------------|
B|--------7--8--8-8-7-7----x\\-|
G|--------7--7--7-7-7-7----x\\-|
D|-9-9----9--9--9-9-9-9--------|
A|-9-9^------------------------|
E|-7-7^------------------------|








                                                 Slower here
E|-------------------------------------------------------------------------|
B|-------------------------------------------------------------------------|
G|-----------------------------------------------------9--7---------x\\----|
D|-2--2-2-2-2-2-2-2-2-2-2-2-2-2-2--------4--4--4----9^------9-------x\\----|
A|-2--2-2-2-2-2-2-2-2-2-2-2-2-2-2--------4--4--4----9^--------9------------|
E|-0--0-0-0-0-0-0-0-0-0-0-0-0-0-0--7\\\--2--2--0----7^----------7----------|
      . . . . . . . . . . . . . . 



chorus
 
E|-7--7-7-7-7-7-7-5---5-7---7-7--7--7-7-7-7-7-7--9---10---10--|
B|-7--7-7-7-7-7-7-5---5-7---7-7--7--7-7-7-7-7-7--9---10---10--|
G|-7--7-7-7-7-7-7-6---6-7---7-7--7--7-7-7-7-7-7--9---11---11--|
D|-9--9-9-9-9-9-9-7---7-9---9-9--9--9-9-9-9-9-9--11--12---12--|
A|-9--9-9-9-9-9-9-7---7-9---9-9--9--9-9-9-9-9-9--11--12---12--|
E|-7--7-7-7-7-7-7-7---5-7---7-7--7--7-7-7-7-7-7--9---10---10--|


E|-3--3-3-3-3-3--3--3-3-3-3-3---5--5-5-5-5-5--5--5-5-5-5-5-|
B|-3--3-3-3-3-3--3--3-3-3-3-3---7--7-7-7-7-7--5--5-5-5-5-5-|
G|-4--4-4-4-4-4--4--4-4-4-4-4---7--7-7-7-7-7--6--6-6-6-6-6-|x2
D|-5--5-5-5-5-5--5--5-5-5-5-5---7--7-7-7-7-7--7--7-7-7-7-7-|
A|-5--5-5-5-5-5--5--5-5-5-5-5---5--5-5-5-5-5--7--7-7-7-7-7-|
E|-3--3-3-3-3-3--3--3-3-3-3-3---5--5-5-5-5-5--5--5-5-5-5-5-|


after chorus

E|---------------------------------------------------|
B|---------------------------------------------------|
G|-12--12----12/--14--14---14\--11--11---11---9--9---|
D|--x---x-----x----x---x----x----x---x----x---x--x---|
A|-10--10----10/--12--12---12\---9---9----9---7--7---|
E|---------------------------------------------------|



second chorus is played 2 times. during second time play this(the same as vocals)

E|-------------------------------------------|
B|-------------------------------------------|
G|-12-12---12/-14-14---14-14-14---14\-11-----|
D|--x--x----x---x--x----x--x--x----x---x-----|
A|-10-10---10/-14-14---14-14-14---14\-11-----|
E|-------------------------------------------|


this is the key change after the second chorus

E|-------------------------------------|
B|----------------------8^-------------|
G|-9------------------9----9^----------|
D|-x-----------------------------------|
A|-7^----------------------------------|
E|-0^--------------------------0^------|

E|--------------------------------------------------------------------------|
B|--------------------------------------------------------------------------|
G|--------------------------------------------------------------------------|
D|---------------------------------------(5x)------(9x)----(7x)----(9x)-----|
A|-7x-------10x------9x-----10x-----------7x-------10x------9x-----10x------|
E|-0--0-0-0--0--0-0--0--0-0--0--0-0-0-0-0-0--0-0-0--0--0-0--0--0-0--0-00000-|
    
(0's at the end are the same speed as the others)                          




E|--------------------------------------------------------------------------|
B|--------------------------------------------------------------------------|
G|-9-9x----9/11x--11/12x---11x---9---9-9x----9/11x--11/12x--12/14---12------|
D|-x-x-----x--x----x--x-----x----x---x-x-----x--x----x--x----x--x----x--12b-|
A|-7-7x----7/-9x---9/10x----9x---7---7-7x----7/-9x---9/10---10/12---10------|
E|-0-0-0-0-0--0x---0--0x----0x---0---0-0x-0-00/-0x---0--0----0--0----0------|
       . .                                . .

E|------------------------------------------------------------------|
B|-------------------------------10---------------------------------|
G|-9-9x----9/11x----11/12x--12x--11----9-9x-------9/11x----11/12x---|
D|-x-x-----x-x-------x-x-----x----x----x-x--------x--x------x--x----|
A|-7-7x----7/-9x-----9/10x--10x---9----7-7x-------7/-9x-----7/-9----|
E|-0-0x-00-0--0x-----0--0x---0x---0----0-0--0-0---0--0------0--0----|
        ..                                  . .


E|--------------------|
B|--------------------|
G|-12-12--12\11--11\9-|
D|--x--x---x--x---x-x-|
A|-10-10--10\-9---9\7-|
E|--------------------|



E|----------------------------------------------|
B|----------------------------------------------|
G|-9---------9/11-----11/12---11----9-----------|
D|-x---------x--x------x--x----x----x-----------|--------|
A|-7---------7/-9------9-10----9----7-----------|        |
E|-0-0-0-0---0--0--0---0--0--0-0--0-0--0-0-0----|        |
                                                         |
                                                         |-x2
E|----------------------------------------------|        |
B|----------------------------------------------|        |
G|-9---------9/11----11/12--12/14--12-----------|--------|
D|-x---------x--x-----x--x---x--x---x---12b-----|        
A|-7---------7/-9-----9/10--10/12--10-----------|        
E|-0--0-0-0--0--0--0--0-0--0-0--0---0-----------|
 dont play this riff the seconed time.


E|----------------------------------------------|
B|----------------------------------------------|
G|-9-9-9-9-11-11-11-11-12-12-12-12-14-14-14-14--|
D|-x-x-x-x-x-x-x-x-x-x-x-x-x-x-x-x-x-x-x-x-x-x--|
A|-7-7-7-7-9-9-9-9-9-9-10-10-10-10-12-12-12-12--|
E|----------------------------------------------|


E|---------------------------------------------------------------------|
B|---------------------------------------------------------------------|
G|-7/9-9-9-10--9-9--9-9-9-7/9-9---9-9-9-9-11-11-11-12x-----------------|
D|-x-x-x-x-x---x-x--x-x-x-x-x-x---x-x-x-x--x--x--x--x------5*---5---5--|x4
A|-5/7-7-7-8---7-7--7-7-7-5/7-7---7-7-7-7--9--9--9-10x---5*--5*-5---5--|
E|-0-0-0-0-0---0-0--0-0-0-0-0-0---0-0-0-0--0--0--0--0-----------3---3--|



E|-------------------------12*^----------X--|  sudden ending. 
B|-----------------------12*^------------X--|   mute all strings
G|---------------------12*^--------------X--|
D|-2^------------------------------------X--|
A|-2^------------------------------------X--|
E|-0^------------------------------------X--|


thats it. pretty cool song
Related for The Boy Who Destroyed The World tab