Guitaretab - guitar tabs
Song name
# A B C D E F G H I J K L M N O P Q R S T U V W X Y Z

Afi - He Who Laughs Last tab

AFI  He Who Laughs Last
A fairly easy (but still really awesome) song to play by AFI. 
Standard Tuning, rhythm is shown as best as possible, listen to the song to be more precise

Intro
e|-------------------------------------------------|
B|-------------------------------------------------|
G|--7-7777-7-7777-7-5-5555-5-5555-5-4444444444444--|
D|--7-7777-7-7777-7-5-5555-5-5555-5-4444444444444--|
A|--5-5555-5-5555-5-3-3333-3-3333-3-2222222222222--|
E|-------------------------------------------------|
pm      ****   ****     ****   ****

Verse  
e|------------------------------------------------------------|
B|------------------------------------------------------------|
G|--7777779910101010101010101212121212121212------------------|
D|--77777799101010101010101012121212121212121010101010101010--|     
A|--55555577-8-8-8-8-8-8-8-810101010101010101010101010101010--|
E|-------------------------------------------8-8-8-8-8-8-8-8--|

e|----------------------------------------------------|
B|----------------------------------------------------|
G|--7777779910101010101010101212121212121212----------|
D|--7777779910101010101010101212121212121212--10--10--|           
A|--55555577-8-8-8-8-8-8-8-81010101010101010--10--10--|
E|---------------------------------------------8---8--|

e|------------------------------------------------------------|
B|------------------------------------------------------------|
G|--77777799101010101010101012121212121212121212121212121212--|
D|--77777799101010101010101012121212121212121212121212121212--|
A|--55555577-8-8-8-8-8-8-8-810101010101010101010101010101010--|
E|------------------------------------------------------------|
[ Tab from: http://www.guitaretab.com/a/afi/287.html ]
e|------------------------------------------------------------|
B|------------------------------------------------------------|
G|--7777779910101010101010101212121212121212------------------|
D|--77777799101010101010101012121212121212121010101010101010--|         
A|--55555577-8-8-8-8-8-8-8-810101010101010101010101010101010--|
E|-------------------------------------------8-8-8-8-8-8-8-8--|

Chorus
e|-------------------------------------|
B|-------------------------------------|
G|--7777777777777777-------------------|
D|--777777777777777777777777755555555--| X4
A|--555555555555555577777777755555555--|
E|------------------55555555533333333--|

Post Chorus
e|---------|
B|---------|
G|---------|
D|--2-4/5--| X4
A|--2-4/5--|
E|--0-2/3--|

Bridge
e|----------------------------------------------------|
B|----------------------------------------------------|
G|--777777777777779910101010101010101010101010101010--|
D|--777777777777779910101010101010101010101010101010--|
A|--5555555555555577-8-8-8-8-8-8-8-8-8-8-8-8-8-8-8-8--|
E|----------------------------------------------------|
                                                         X2
e|----------------------------------------------------|
B|----------------------------------------------------|
G|--7777777777777799----------------------------------|
D|--777777777777779910101010101010101010101010101010--|
A|--555555555555557710101010101010101010101010101010--|
E|-------------------8-8-8-8-8-8-8-8-8-8-8-8-8-8-8-8--|

Bridge End
e|---------------------------|
B|---------------------------|
G|---------------------------|
D|---------------------------|
A|---------------------------|
E|--7-6-5-7-6-5-7-6-5-7-6-5--|

End
e|-----|
B|-----|
G|--7--|
D|--7--|
A|--5--|
E|-----|


Songflow:

Intro
Verse
Chorus
Post Chorus
Verse
Chorus
Post Chorus
Bridge
Bridge End
Verse
Chorus
Post Chorus
End


Related for He Who Laughs Last tab