Song name
# A B C D E F G H I J K L M N O P Q R S T U V W X Y Z

Afroman - Crazy Rap tab

Tabbed by: Jason Patterson (cyaphobia5@hotmail.com)

Tuning: Standard (E A D G B E)

I've listened to the intro very closley and I am almost positive that this is
how it go's. I'm not sure but I think that the song is played with a capo on
the 5th fret, but you can still play the song without one.
Got questions? E-mail me.

Key: b = Bend string till it sounds like the note after the "b"
     r = Bend string before you pluck it then go back to original note
     h = Hammer on
     p = pull off


  0:15                         0:18                
e|---------------------------------||
b|---------------------------------||
g|-7b9-7-5-7-5---5-----------------||
d|-------------7----7-5------------||
a|----------------------7-5--------||
E|--------------------------7b8-5--||

  0:20                 0:23 
e|---------------------------------||
b|---------------------------------||
g|-----------------5-5-------------||
d|---------5--5h7-------7----------||
a|-5--5h7--------------------------||
E|---------------------------------||

  0:24                                 0:28
e|----------------------------------------||
b|----------------------------------------||
g|-----5h7--7b9---(9)-9r7-5-7-5-------5---||
d|-5h7--------------------------7-5-7---7-||
a|----------------------------------------||
E|----------------------------------------||

  0:29                                  0:32
e|----------------------------------------||
b|----------------------------------------||
g|------5h7--9r7-------9r7-5-7-5-------5--||
d|-5h7---------------------------7-5-7---7||
a|----------------------------------------||
E|----------------------------------------||

   0:34                       0:36
e|---------------------------------||
b|---------------------------------||
g|-----5-7--7b9---(9)--9r7-5-7-5---||
d|-5h7-----------------------------||
a|---------------------------------||
E|---------------------------------||
Tap to rate this tab
# A B C D E F G H I J K L M N O P Q R S T U V W X Y Z