Song name
# A B C D E F G H I J K L M N O P Q R S T U V W X Y Z

Afroman - She Wont Let Me tab

Afroman
She Wont Let Me Fuck...


e-7-x-7---7-x-7---7-x-7---7-x-7-|
B-8-x-8---8-x-8---8-x-8---8-x-8-|
G-7-x-7---7-x-7---7-x-7---7-x-7-|
D-------------------------------|
A-------------------------------|
E-------------------------------|

e-8-x-8---8-x-8---8-x-8---8-x-8-|
B-8-x-8---8-x-8---8-x-8---8-x-8-|
G-7-x-7---7-x-7---7-x-7---7-x-7-|
D-------------------------------|
A-------------------------------|
E-------------------------------|

this repeats throughout the whole song. really easy.
Tap to rate this tab
# A B C D E F G H I J K L M N O P Q R S T U V W X Y Z