Song name
# A B C D E F G H I J K L M N O P Q R S T U V W X Y Z

Afterhours - La Vedova Bianca White Widow tab

AFTERHOURS

LA VEDOVA BIANCA/WHITE WIDOW
Tabbed by dan
Standard tuning

|-------------------------------------------------|
|-------------------------------------------------|
|-------------------------------------------------|
|--10--10---10--10--10---10--10--10---10--10--10--|
|--10--10---10--10--10---10--10--10---10--10--10--|
|---8---8----8---8---8----8---8---8----8---8---8--|
intro

|---------------------------------------------------------------------------|
|---------------------------------------------------------------------------|
|---------------------------------------------------------------------------|
|-10-10--10-10-10--10-12-12--12-12-12--12-13-13--13-13-13-13-12-12-12-13-12-|
|-10-10--10-10-10--10-12-12--12-12-12--12-13-13--13-13-13-13-12-12-12-13-12-|
|--8--8---8--8--8---8-10-10--10-10-10--10-11-11--11-11-11-11-10-10-10-11-10-|
verses

|--------------------------------------------------------------|
|--------------------------------------------------------------|
|--------------------------------------------------------------|
|--10-10--10-10-10-10-12-12-12-12-12--12-13-13-13-13-13-13-12\-|
|--10-10--10-10-10-10-12-12-12-12-12--12-13-13-13-13-13-13-12\-|
|---8--8---8--8--8--8-10-10-10-10-10--10-11-11-11-11-11-11-10\-|
end verses on this

|----------------------------------------------------------|
|----------------------------------------------------------|
|----------------------------------------------------------|
|--10-10-10-10-10-8-8-8--6--6-6-6-8-8-8-8--6-6-6--5-6-5-8--|
|--10-10-10-10-10-8-8-8--6--6-6-6-8-8-8-8--6-6-6--5-6-5-8--|
|---8--8--8--8--8-6-6-6--4--4-4-4-6-6-6-6--4-4-4--3-4-3-6--|
chorus

|-------------------------------------|
|-------------------------------------|
|-------------------------------------|
|--10vvvvvvvvvvvvvvvvvvvvvvvvv--------|
|-------------------------------------|
|-------------------------------------|
bridge (both)  feedback note

|-----------------------------------------------------|
|-----------------------------------------------------|
|-----------------------------------------------------|
|-10-10-10-10-10-10-10-10-10-10-10-10-10-10-10-10-10--|
|-10-10-10-10-10-10-10-10-10-10-10-10-10-10-10-10-10--|
|--8--8--8--8--8--8--8--8--8--8--8--8--8--8--8--8--8--|
outro

|--------------------------------------|
|--15b17r15--13b15r13------------------|
|---------------------12b13r12--12-----|
|--------------------------------------|
|--------------------------------------|
|--------------------------------------|
this riff (or variations of) is played over final chorus and outro
with fuzz and feedback

that's about it.
any comments, suggestions, etc. e-mail me at yellowledbetter_69@hotmail.co.uk
Tap to rate this tab
 
# A B C D E F G H I J K L M N O P Q R S T U V W X Y Z