Song name
# A B C D E F G H I J K L M N O P Q R S T U V W X Y Z

Afterhours - Il Sangue Di Guida Judas Blood tab

AFTERHOURS

IL SANGUE DI GUIDA / JUDAS' BLOOD

tabbed by dan (yellowledbetter_69@hotmail.co.uk)

standard tuning

|----------------------------------------|
|----------------------------------------|
|----------------------------------------|
|----------------------------------------|
|------------9---10---9---12---10--9-10--|
|----0---0---0----0---0----0----0--0-----|
intro/ verse

|--------------------------------------------------------------|
|--------------------------------------------------------------|
|--------------------------------------------------------------|
|----2--2---2--2---2--2---2--2--10-10-10-10---12--12--12--12---|
|----2--2---2--2---2--2---2--2--10-10-10-10---12--12--12--12---|
|----0--0---0--0---0--0---0--0---8--8--8--8---10--10--10--10---|
chorus

bridge is same as intro

|-------------------------------------|
|-------------------------------------|
|-------------------------------------|
|---10--10--10--10----2---2---2---2---|
|---10--10--10--10----2---2---2---2---|
|----8---8---8---8----0---0---0---0---|
outro 

end on E.

that's all of it.
any comments suggestions etc email me
Tap to rate this tab
# A B C D E F G H I J K L M N O P Q R S T U V W X Y Z