Song name
# A B C D E F G H I J K L M N O P Q R S T U V W X Y Z

Afterhours - Veleno tab

AFTERHOURS

VELENO

tabbed by dan (yellowledbetter_69@hotmail.co.uk)

standard tuning

|----------------------------------------|
|----------------------------------------|
|----------------------------------------|
|-----9-9-9-9-9-9-9-9---9-9-9-9-9-9-9-9--|
|---x-9-9-9-9-9-9-9-9---9-9-9-9-9-9-9-9--|
|---0-7-7-7-7-7-7-7-7-0-7-7-7-7-7-7-7-7--|
intro/ verses  guitar 1

|---------------------------------------------------|
|---------------------------------------------------|
|--9-9-9--4-4-4--9-9-9--4-4-4--9-9-9--4-4-4----4-4--|
|--9-9-9--4-4-4--9-9-9--4-4-4--9-9-9--4-4-4--4h4-4--|
|--7-7-7--2-2-2--7-7-7--2-2-2--7-7-7--2-2-2--0h2-2--|
|---------------------------------------------------|
intro guitar 2   play same as guitar 1 for verse and chorus

|---------------------------------------------------|
|---------------------------------------------------|
|---------7--9--------7--9--------7--9--9/11--9--7--|
|---7--9--------7--9--------7--9--------------------|
|---------------------------------------------------|
|---------------------------------------------------|
intro (also played in chorus)

|-------------------------------------------------------------------|
|-------------------------------------------------------------------|
|-------------------------------------------------------------------|
|--9-9-9-9-9-9-9-9-9-9-9-9-9-9-9-9--5-5-5-5-5-5-5-5--2-2-2-2-2-2-2--|
|--9-9-9-9-9-9-9-9-9-9-9-9-9-9-9-9--5-5-5-5-5-5-5-5--2-2-2-2-2-2-2--|
|--7-7-7-7-7-7-7-7-7-7-7-7-7-7-7-7--3-3-3-3-3-3-3-3--0-0-0-0-0-0-0--|
chorus

|------------------------|
|------------------------|
|--------11--9--7--------|
|--9vvvv-----------9vvvv-|
|------------------------|
|------------------------|
chorus fill

for the break, play chorus while noise machine plays, then there's a small pause, 
the back to verse.
for outro repeat chorus. there is another guitar in there playing something, but 
it's too hard to hear for me to tab.

that's (almost) it.

any comments etc email me.
Tap to rate this tab
# A B C D E F G H I J K L M N O P Q R S T U V W X Y Z