Song name
# A B C D E F G H I J K L M N O P Q R S T U V W X Y Z

Afterhours - E Solo Febbre tab

AFTERHOURS

E SOLO FEBBRE

tabbed by dan (yellowledbetter_69@hotmail.co.uk)

Drop-D tuning

|---------------------------------------------|
|---------------------------------------------|
|---------------------------------------------|
|---------------/8--8---3--3-/7--7---4--4--4--|
|--/6--4--3h4---/8--8---3--3-/7--7---4--4--4--|
|---------------/8--8---3--3-/7--7---4--4--4--|
intro/ verses  guitar 1

|-----------------------------------------------------------------|
|--10-9-7--------11\-------10-9-7------11\-------9\-------10-9-7--|
|-----------------------------------------------------------------|
|-------------------------------------------4/-------3/-----------|
|-----------------------------------------------------------------|
|-----------------------------------------------------------------|
intro/ verses guitar 2                improv on this throughout song

|---------------------------------------------|
|---------------------------------------------|
|---------------------------------------------|
|----------------6-6-6-6--8-8-8-8-8--6-6-6-6--|
|--/6--4--3h4p3--6-6-6-6--8-8-8-8-8--6-6-6-6--|
|----------------6-6-6-6--8-8-8-8-8--6-6-6-6--|
pre-chorus   guitar 1

|-----------------------------------------------|
|-----------------------------------------------|
|-----------------------------------------------|
|--3-3-/9-9--11--11---6-6--5-5---9-9---11--11---|
|--3-3-/9-9--11--11---6-6--5-5---9-9---11--11---|
|--3-3-/9-9--11--11---6-6--5-5---9-9---11--11---|
chorus   (ci piacera...)    both guitars

verse 2 is only violin

play pre-chorus, then chorus a few times, then back to verse until end.

that's it. any comments email me.

Tap to rate this tab
 
# A B C D E F G H I J K L M N O P Q R S T U V W X Y Z