Guitaretab - guitar tabs
Song name
# A B C D E F G H I J K L M N O P Q R S T U V W X Y Z

Against All Authority - Nothing To Lose tab

-------------------------------------------------------------------------------
	          NOTHING TO LOSE - Against All Authority
-------------------------------------------------------------------------------
Tabbed by: nicholas wong
Email: breakthesilencewakethedead@gmail.com (msn/email)

Tuning: standard tuning

Verse
e|------------------------------------------------------------------------|
B|------------------------------------------------------------------------|
G|--------44446666--------------------------------------------------------|x2
D|-4------44446666--------------------------------------------------------|
A|-4------22224444--------------------------------------------------------|
E|-2----------------------------------------------------------------------|

e|--------------------------------------------------------------------------|
B|--------------------------------------------------------------------------|
G|----------44446666--------------------------------------------------------|x4
D|-44444444-44446666--------------------------------------------------------|
A|-44444444-22224444--------------------------------------------------------|
E|-22222222-----------------------------------------------------------------|
[ Tab from: http://www.guitaretab.com/a/against-all-authority/158390.html ]
Chorus
e|---------------------------------------------------------------|
B|---------------------------------------------------------------|
G|-66666666-4444-------------------------------------------------|x3
D|-66666666-44444444---------------------------------------------|
A|-44444444-22224444---------------------------------------------|
E|--------------2222---------------------------------------------|

e|----------------------------------------------|
B|----------------------------------------------|
G|-6666666\4/6666666\4/6666666-6\4--------------|
D|-6666666\4/6666666\4/6666666-6\4-8\6\44444444-|
A|-4444444\2/4444444\2/4444444-4\2-8\6\44444444-|
E|---------------------------------6\4\22222222-|

Bridge (ska upstrokes)
e|-2-2-2-2-2-2-4-4-|
B|-2-2-2-2-4-4-6-6-|
G|-3-3-3-3-4-4-6-6-|x4
D|-4-4-4-4-4-4-6-6-|
A|-4-4-4-4-2-2-4-4-|
E|-2-2-2-2---------|
   F#      B   C#

Trumpet Solo (Tabbed as guitar)
e|---------------------------------------|
B|---------------------------------------|
G|---6~-3-6-4~-66-66-4-------------------|
D|-4-------------------4x-46x-68x-89-998-|
A|---------------------------------------|
E|---------------------------------------|
| /  slide up
| \  slide down
| h  hammer-on
| p  pull-off
| ~  vibrato
| +  harmonic
| x  Mute note
===============================================================================
Related for Nothing To Lose tab