Song name
# A B C D E F G H I J K L M N O P Q R S T U V W X Y Z

Against All Authority - All Fall Down tab

Tabbed by: Ryan
Email: N/A

Tuning: Standard

I tabbed all of this myself (except for the ska part) and then checked it with the tab 
the Against All Authority website. Everything here should be right, though I'm not sure 
ska part is exact.

Key:

~~ Let Ring


Intro:

e|--------|
B|--------|
G|--------|
D|--9~~---|
A|--9~~---|
E|--7~~---|

Verse:

e|------------------------------------|
B|------------------------------------|
G|-----------7-9----------10-9-7------|
D|--9-9-9-9--7-9--9-9-9-9-10-9-7------| x4
A|--9-9-9-9--5-7--9-9-9-9--8-7-5------|
E|--7-7-7-7-------7-7-7-7-------------|

Pre-chorus:

e|---------------------------------------|
B|---------------------------------------|
G|--9-9-9-9---------7-7-7-7--------------|
D|--9-9-9-9-9-9-9-9-7-7-7-7-7-7-7-7------| x3
A|--7-7-7-7-9-9-9-9-5-5-5-5-7-7-7-7------|
E|----------7-7-7-7---------5-5-5-5------|

e|--------------------------------------------------|
B|--------------------------------------------------|
G|--9-9-9-9----------7-7-7-7-7-7-7-7-7-7-7-7-7-7----|
D|--9-9-9-9-9-9-9-9--7-7-7-7-7-7-7-7-7-7-7-7-7-7----|
A|--7-7-7-7-9-9-9-9--5-5-5-5-5-5-5-5-5-5-5-5-5-5----|
E|----------7-7-7-7---------------------------------|

e|--------------------------------|
B|--------------------------------|
G|--9-9-9-9-9-9-9-9-9-9-9-9-9-----|
D|--9-9-9-9-9-9-9-9-9-9-9-9-9-----|
A|--7-7-7-7-7-7-7-7-7-7-7-7-7-----|
E|--------------------------------|

Chorus (ska part):

e|-X-X-7-X-X-7--X-X-5-X-X-5-----|
B|-X-X-7-X-X-7--X-X-5-X-X-5-----|
G|-X-X-8-X-X-8--X-X-6-X-X-6-----| x8
D|-X-X-9-X-X-9--X-X-7-X-X-7-----|
A|------------------------------|
E|------------------------------|

Verse 2:

e|----------------------------------------------------------|
B|----------------------------------------------------------|
G|-----------7-9----------10-9-7-----------7-9----10-9-7----|
D|--9-9-9-9--7-9--9-9-9-9-10-9-7--9-9-9-9--7-9--9-10-9-7----|
A|--9-9-9-9--5-7--9-9-9-9--8-7-5--9-9-9-9--5-7--9--8-7-5----|
E|--7-7-7-7-------7-7-7-7---------7-7-7-7-------7-----------|

e|-----------------------------------|
B|-----------------------------------|
G|-----------7-9----------10-9-7-----| x2
D|--9-9-9-9--7-9--9-9-9-9-10-9-7-----|
A|--9-9-9-9--5-7--9-9-9-9--8-7-5-----|
E|--7-7-7-7-------7-7-7-7------------|

Pre-chorus
Chorus
Intro
Verse (x4)

End with:

e|----------------|
B|----------------|
G|--10-9-7--------|
D|--10-9-7-9~~----|
A|---8-7-5-9~~----|
E|---------7~~----|
Tap to rate this tab
 
# A B C D E F G H I J K L M N O P Q R S T U V W X Y Z