Song name
# A B C D E F G H I J K L M N O P Q R S T U V W X Y Z

Against All Authority - Walk Like An Egyptian tab

^ = p.m.
(x)= second guitar

verse 1: (# of times played varies)
e|---------------------------------------------|
B|---------------------------------------------|
G|---------------------------------------------|
D|-------------------------------------------9-|
A|-9-----9-----9-----9-----9-----9-----9-----7-|
E|-7-----7-----7-----7-----7-----7-----7-------|

riff:
e|---------------------|
B|-5b-3-7b-3--5b-0-3-5-|

solo:
e|-----------------------------------------4--7--9-11--9b-----------9b-------|
B|--------------------------------------------------------10-10-10-----10-10-|
G|-7b-5-5-5--7b-5-5-5--7b-5-5-5--7b-5-5-5------------------------------------|
D|---------------------------------------------------------------------------|
A|---------------------------------------------------------------------------|
E|---------------------------------------------------------------------------|

 	
Against All Authority- Walk Like An Egyptian Guitar Tab
Current mood:  creative

^ = p.m.
(x)= second guitar

verse 1: ( of times played varies)
e|---------------------------------------------|
B|---------------------------------------------|
G|---------------------------------------------|
D|-------------------------------------------9-|
A|-9-----9-----9-----9-----9-----9-----9-----7-|
E|-7-----7-----7-----7-----7-----7-----7-------|

riff:
e|---------------------|
B|-5b-3-7b-3--5b-0-3-5-|

solo:
e|-----------------------------------------4--7--9-11--9b-----------9b-------|
B|--------------------------------------------------------10-10-10-----10-10-|
G|-7b-5-5-5--7b-5-5-5--7b-5-5-5--7b-5-5-5------------------------------------|
D|---------------------------------------------------------------------------|
A|---------------------------------------------------------------------------|
E|---------------------------------------------------------------------------|

e|-----9b-----------9b---------------5-8-5-----------------------------------|
B|-10-----10-10-10-----10-10-10--5-7-------7-5-3-----3-----------------------|
G|-----------------------------------------------5-2---5--7b-5-5-5--7b-5-5-5-|
D|---------------------------------------------------------------------------|
A|---------------------------------------------------------------------------|
E|---------------------------------------------------------------------------|

e|---------------------------------------------------------------------------|
B|-------------------------------5-7-----------------------------------------|
G|-7b--7b-7b-7b-7b--7~~~~~~~~~~------7b~~~~~~~~------------------------------|
D|---------------------------------------------------------------------------|
A|--------------------------------------------------9------------------------|
E|--------------------------------------------------7--let-ring--------------|

verse 2:
e|---------------------------------------------------------------------------|
B|---------------------------------------------------------------------------|
G|---------------------------------------------------------------------------|
D|---------------------9-----------------------------------------------------|
A|-9--9-9-9-9-9-9-x16--7-----------------------------------------------------|
E|-7--7-7-7-7-7-7------------------------------------------------------------|
   ^  ^ ^ ^ ^ ^ ^

outro: (repeat till end)
e|---------------------------------------------------------------------------|
B|---------------------------------------------------------------------------|
G|-----4-4-4-4-6-8-6--4-4-4-4-6-8-8--4-4-4-4-6-8-4-6-------------------------|
D|---------------------------------------------------------------------------|
A|-(9)-----------------------------------------------------------------------|
E|-(7)-----------------------------------------------------------------------|

Tap to rate this tab
 
# A B C D E F G H I J K L M N O P Q R S T U V W X Y Z