Song name
# A B C D E F G H I J K L M N O P Q R S T U V W X Y Z

Agnostic Front - A Mi Manera tab

AGNOSTIC FRONT
A MI MANERA
DGCFAD

*=PALM MUTE

TABBED BY andherembrace

-----------------------------------------------------------------|
-----------------------------------------------------------------|
-X-X-------------------------------------------------------------|
-X-X----------------^----------------------7------10-9----10-9---|
-X-X--2-------*-*--3-2-*-*-5-6-2-------*-*-5--*-*-8-\7-*-*-8-7---|
-X-X--0-------0-0--1-0-0-0-3-4-0-------0-0----0-0------0-0-------|

0:09
--------------------------------------------------------------|
--------------------------------------------------------------|
--------------------------------------------------------------|
-----------------^----------------------7------10-9----10-9---|
---2-------*-*--3-2-*-*-5-6-2-------*-*-5--*-*-8-\7-*-*-8-7---|
---0-------0-0--1-0-0-0-3-4-0-------0-0----0-0------0-0-------|

0:18 
-----------------------------------------------------------------|
---------------------------------------------------___-----------|
--------------------------------------------------/   \----------|
-*-*-*-*-*-*-*-*-*-*-*-*-*-*-----*-*-*-*-*-*-*-*-9-7-9-7-10-9----|
-2-2-2-2-2-2-2-2-2-2-2-2-2-2--^--2-2-2-2-2-2-2-2-7-5-7-5--8-7----|
-0-0-0-0-0-0-0-0-0-0-0-0-0-0-0-1-0-0-0-0-0-0-0-0-7-5-7-5--8-7----|

0:23
-------------------------------------------------------------|
-------------------------------------------------------------|
-------------------------------------------------------------|
-*-*-*-*-*-*-*-*-*-*-*-*-*-*-----*-*-*-*-*-*-*-*-*-*---------|
-2-2-2-2-2-2-2-2-2-2-2-2-2-2--^--2-2-2-2-2-2-2-2-2-2-3-5-6---|
-0-0-0-0-0-0-0-0-0-0-0-0-0-0-0-1-0-0-0-0-0-0-0-0-0-0-1-3-4---|


0:27
-----------------------------------------------------------------|
---------------------------------------------------___-----------|
--------------------------------------------------/   \----------|
-*-*-*-*-*-*-*-*-*-*-*-*-*-*-----*-*-*-*-*-*-*-*-9-7-9-7-10-9----|
-2-2-2-2-2-2-2-2-2-2-2-2-2-2--^--2-2-2-2-2-2-2-2-7-5-7-5--8-7----|
-0-0-0-0-0-0-0-0-0-0-0-0-0-0-0-1-0-0-0-0-0-0-0-0-7-5-7-5--8-7----|

0:32
-------------------------------------------------------------|
-------------------------------------------------------------|
-------------------------------------------------------------|
-*-*-*-*-*-*-*-*-*-*-*-*-*-*-----*-*-*-*-*-*-*-*-*-*---------|
-2-2-2-2-2-2-2-2-2-2-2-2-2-2--^--2-2-2-2-2-2-2-2-2-2-3-5-6---|
-0-0-0-0-0-0-0-0-0-0-0-0-0-0-0-1-0-0-0-0-0-0-0-0-0-0-1-3-4---|

0:37
---------------------------------------------------------------|
---------------------------------------------------------------|
---------------------------------------------------------------|
---------------------------------------------------------------|
-2--------------------------------------------3-5-6------------|
-0--------------------------------------------1-3-4------------|


0:42
---------------------------------------------------------------------|
---------------------------------------------------------------------|
---------------------------------------------------------------------|
-9-****-9-********10-****10-********-7-****-7-********-7-----5---10--|
-7-7777-7-77777777-8-8888-8-88888888-5-5555-5-55555555-5--7--3----8--|
----------------------------------------------------------5----------|

0:47
----------------------------------------------------------------------|
----------------------------------------------------------------------|
-------------------------------------------------------------*-*------|
-9-****-9-********10-****10-********-7-****-7-********-7-----5-5------|
-7-7777-7-77777777-8-8888-8-88888888-5-5555-5-55555555-5--7--3-3---3--|
----------------------------------------------------------5--------1--|

0:53
---------------------------------------------------------------|
---------------------------------------------------------------|
-------------------------------------------------*-*-----------|
-9-9--9-9-9-9-1010-10101010--7-7--7-7-7-7--7-----5-5-10--------|
-7-7--7-7-7-7--8-8--8-8-8-8--5-5--5-5-5-5--5--7--3-3--8--------|
----------------------------------------------5----------------|

0:59
---------------------------------------------------------------|
---------------------------------------------------------------|
-------------------------------------------------*-*-----------|
-9-9--9-9-9-9-1010-10101010--7-7--7-7-7-7--7-----5-5-----------|
-7-7--7-7-7-7--8-8--8-8-8-8--5-5--5-5-5-5--5--7--3-3--3--------|
----------------------------------------------5-------1--------|


1:04
--------------------------------------------------------|
--------------------------------------------------------|
------------------------------------------------*-*-----|
------------------------------------------7-----5-5--10-|
-2-2--2-2-2--5-3-3--3-3-3--3-5-5--5-5-5-5-5--7--3-3--8--|
-0-0--0-0-0--3-1-1--1-1-1--1-3-3--3-3-3-3----5----------|

1:10
------------------------------------------------------------------|
------------------------------------------------------------------|
-------------------------------------------------*-*--------------|
-9-9--9-9-9-9-1010-10101010--7-7--7-7-7-7--7-----5-5-10-----------|
-7-7--7-7-7-7--8-8--8-8-8-8--5-5--5-5-5-5--5--7--3-3--8---2---**2-|
----------------------------------------------5-------8---0---000-|

1:17
---------------------------------------------------------------|
---------------------------------------------------------------|
---------------------------------------------------------------|
-------------------------------------------------9-7-9-7-10-9--|
-2-2-2-2-2-2-2-2-3-3-3-3-3-3-3-3-5-5-5-5-5-5-5-5-7-5-7-5--8-7--|
-0-0-0-0-0-0-0-0-1-1-1-1-1-1-1-1-3-3-3-3-3-3-3-3-7-5-7-5--8-7--|

1:21
---------------------------------------------------------------|
---------------------------------------------------------------|
---------------------------------------------------------------|
---------------------------------------------------------------|
-2-2-2-2-2-2-2-2-3-3-3-3-3-3-3-3-5-5-5-5-5-5-5-5-*-*-3-*-*-5---|
-0-0-0-0-0-0-0-0-1-1-1-1-1-1-1-1-3-3-3-3-3-3-3-3-0-0-1-0-0-3---|

1:26
---------------------------------------------------------------|
---------------------------------------------------------------|
---------------------------------------------------------------|
-------------------------------------------------9-7-9-7-10-9--|
-2-2-2-2-2-2-2-2-3-3-3-3-3-3-3-3-5-5-5-5-5-5-5-5-7-5-7-5--8-7--|
-0-0-0-0-0-0-0-0-1-1-1-1-1-1-1-1-3-3-3-3-3-3-3-3-7-5-7-5--8-7--|

1:31
---------------------------------------------------------------|
---------------------------------------------------------------|
---------------------------------------------------------------|
---------------------------------------------------------------|
-2-2-2-2-2-2-2-2-3-3-3-3-3-3-3-3-5-5-5-5-5-5-5-5-*-*-3-*-*-5---|
-0-0-0-0-0-0-0-0-1-1-1-1-1-1-1-1-3-3-3-3-3-3-3-3-0-0-1-0-0-3---|

1:36
---------------------------------------------------------------|
---------------------------------------------------------------|
-------------------------------------------------*-*-----------|
-9-9--9-9-9-9-1010-10101010--7-7--7-7-7-7--7-----5-5-10--------|
-7-7--7-7-7-7--8-8--8-8-8-8--5-5--5-5-5-5--5--7--3-3--8--------|
----------------------------------------------5----------------|

1:41
---------------------------------------------------------------|
---------------------------------------------------------------|
-------------------------------------------------*-*-----------|
-9-9--9-9-9-9-1010-10101010--7-7--7-7-7-7--7-----5-5-----------|
-7-7--7-7-7-7--8-8--8-8-8-8--5-5--5-5-5-5--5--7--3-3--3--------|
----------------------------------------------5-------1--------|


1:47
--------------------------------------------------------|
--------------------------------------------------------|
------------------------------------------------*-*-----|
------------------------------------------7-----5-5--10-|
-2-2--2-2-2--5-3-3--3-3-3--3-5-5--5-5-5-5-5--7--3-3--8--|
-0-0--0-0-0--3-1-1--1-1-1--1-3-3--3-3-3-3----5----------|

1:53
------------------------------------------------------------------|
------------------------------------------------------------------|
-------------------------------------------------*-*--------------|
-9-9--9-9-9-9-1010-10101010--7-7--7-7-7-7--7-----5-5--------------|
-7-7--7-7-7-7--8-8--8-8-8-8--5-5--5-5-5-5--5--7--3-3--3-----------|
----------------------------------------------5-------1-----------|

1:59
---------------------------------------------------------------|
---------------------------------------------------------------|
---------------------------------------------------------------|
---------------------------------------------------------------|
-2-*-*-2-*-*-*-*-3-*-*-2-*-*-*-*-3-*-*-5-*-*-*-*-5-3-6-3-------|
-0-0-0-0-0-0-0-0-1-0-0-0-0-0-0-0-1-0-0-3-0-0-0-0-3-1-4-1-------|


2:04
---------------------------------------------------------------|
---------------------------------------------------------------|
---------------------------------------------------------------|
-----------------------------------------------------*-*-10----|
-2-*-*-2-*-*-*-*-3-*-*-2-*-*-*-*-3-*-*-5-*-*-*-*-5-3-6-6-8-----|
-0-0-0-0-0-0-0-0-1-0-0-0-0-0-0-0-1-0-0-3-0-0-0-0-3-1-4-4-8-----|
2:10
---------------------------------------------------------------|
---------------------------------------------------------------|
---------------------------------------------------------------|
---------------------------------------------------------------|
-2-*-*-2-*-*-*-*-3-*-*-2-*-*-*-*-3-*-*-5-*-*-*-*-5-3-6-3-------|
-0-0-0-0-0-0-0-0-1-0-0-0-0-0-0-0-1-0-0-3-0-0-0-0-3-1-4-1-------|
2:15
------------------------------------------------------------------------|
------------------------------------------------------------------------|
------------------------------------------------------------------------|
-------------------------------------------------------------*-*-10-----|
-2-*-*-2-*-*-*-*-3-*-*-2-*-*-*-*-3-*-*-5-*-*-*-*-5-3-6-3-5-3-6-6-8------|
-0-0-0-0-0-0-0-0-1-0-0-0-0-0-0-0-1-0-0-3-0-0-0-0-3-1-4-1-3-1-4-4-8------|

2:23
---------------------------------------------------------------|
---------------------------------------------------------------|
---------------------------------------------------------------|
-------------------------------------------------9-7-9-7-10-9--|
-2-2-2-2-2-2-2-2-3-3-3-3-3-3-3-3-5-5-5-5-5-5-5-5-7-5-7-5--8-7--|
-0-0-0-0-0-0-0-0-1-1-1-1-1-1-1-1-3-3-3-3-3-3-3-3-7-5-7-5--8-7--|

2:27
---------------------------------------------------------------|
---------------------------------------------------------------|
---------------------------------------------------------------|
---------------------------------------------------------------|
-2-2-2-2-2-2-2-2-3-3-3-3-3-3-3-3-5-5-5-5-5-5-5-5-*-*-3-*-*-5---|
-0-0-0-0-0-0-0-0-1-1-1-1-1-1-1-1-3-3-3-3-3-3-3-3-0-0-1-0-0-3---|

2:32
---------------------------------------------------------------|
---------------------------------------------------------------|
---------------------------------------------------------------|
-------------------------------------------------9-7-9-7-10-9--|
-2-2-2-2-2-2-2-2-3-3-3-3-3-3-3-3-5-5-5-5-5-5-5-5-7-5-7-5--8-7--|
-0-0-0-0-0-0-0-0-1-1-1-1-1-1-1-1-3-3-3-3-3-3-3-3-7-5-7-5--8-7--|

2:37
---------------------------------------------------------------|
---------------------------------------------------------------|
---------------------------------------------------------------|
---------------------------------------------------------------|
-2-2-2-2-2-2-2-2-3-3-3-3-3-3-3-3-5-5-5-5-5-5-5-5-*-*-3-*-*-5---|
-0-0-0-0-0-0-0-0-1-1-1-1-1-1-1-1-3-3-3-3-3-3-3-3-0-0-1-0-0-3---|


2:42-----------------------------------------------------------|
---------------------------------------------------------------|
---------------------------------------------------------------|
---------------------------------------------------------------|
-2-2--2-2-2--2--3-3--3-3-3--3--5-5--5-5-5--5--3-2-*-*-6-3-2----|
-0-0--0-0-0--0--1-1--1-1-1--1--3-3--3-3-3--3--1-0-0-0-4-1-0----|

Tap to rate this tab
 
# A B C D E F G H I J K L M N O P Q R S T U V W X Y Z