Song name
# A B C D E F G H I J K L M N O P Q R S T U V W X Y Z

Air - Cherry Blossom Girl tab

-------------------------------------------------------------------------------
                             Cherry Blossom Girl (Hope Sandoval Version)  - Air
-------------------------------------------------------------------------------
Tabbed by:Chris Warner
E-mail:cwarner3000@gmail.com


No tab for this on UG or youtube yet so I thought I would add it

One of my favorite songs to play on acoustic guitar and its very simple.

Drop D tuning makes it sound nice and full by adding the bass note to the chord
but you don't have to do drop D to play it.


Tuning:Drop D

Intro
    D                          G
e|--0----0--0--0---0--0--0-----5---5--5--5---5--5--5--0-------------------------------|
B|--7--7--7-------------7--7---7--7--7------------7--7--------------------------------|
G|--7--------7------7----------0-------0-------0--------------------------------------|
D|--0------------0-------------0------------0-----------------------------------------|
A|--0--------------------------x------------------------------------------------------|
D|--0--------------------------5-(T)--------------------------------------------------|
    D                          G
e|--0----0--0--0---0--0--0-----5---5--5--5---5--5--5--0-------------------------------|
B|--7--7--7-------------7--7---7--7--7------------7--7--------------------------------|
G|--7--------7------7----------0-------0-------0--------------------------------------|
D|--0------------0-------------0------------0-----------------------------------------|
A|-----------------------------x------------------------------------------------------|
D|-----------------------------5-(T)--------------------------------------------------|

Verse
    D                          G
e|--0----0--0--0---0--0--0-----5---5--5--5---5--5--5--0-------------------------------|
B|--7--7--7-------------7--7---7--7--7------------7--7--------------------------------|
G|--7--------7------7----------0-------0-------0--------------------------------------|
D|--0------------0-------------0------------0-----------------------------------------|
A|-----------------------------x------------------------------------------------------|
D|-----------------------------5-(T)--------------------------------------------------|
"I don't think I feel like being"
    D                          G
e|--0----0--0--0---0--0--0-----5---5--5--5---5--5--5--0-------------------------------|
B|--7--7--7-------------7--7---7--7--7------------7--7--------------------------------|
G|--7--------7------7----------0-------0-------0--------------------------------------|
D|--0------------0-------------0------------0-----------------------------------------|
A|-----------------------------x------------------------------------------------------|
D|-----------------------------5-(T)--------------------------------------------------|
.."Shy"


Repeat above tab for

"Don't think i wanna stand it anymore
I just want to say 'Hi'
To the one I love"


    A
e|-----------------------------------------------------------------------------------|
B|----5--5---5--5---5--5---5--5----0--0--0--0--0-------------------------------------|
G|-----0------0------0------0--------6--6--6---6-------------------------------------|
D|---------7------7------7---------------------7-------------------------------------|
A|--0-----------------------------0------------0-------------------------------------|
D|-----------------------------------------------------------------------------------|
"Tell my cherry blossom girl...this is"

e|--0----0--0--0---0--0--0-----5---5--5--5---5--5--5--0-------------------------------|
B|--7--7--7-------------7--7---7--7--7------------7--7--------------------------------|
G|--7--------7------7----------0-------0-------0--------------------------------------|
D|--0------------0-------------0------------0-----------------------------------------|
A|--0--------------------------x------------------------------------------------------|
D|--0--------------------------5-(T)--------------------------------------------------|
"true"

VERSE 2
D   G
I never talk to you
D   G
People say I should
D   G
I just wanna go out and go for a ride
D   G
Just wanna be sure be by my side
   A
e|------------------------------------------------------------------------------------|
B|----5--5---5--5---5--5---5--5----0--0--0--0-----------------------------------------|
G|-----0------0------0------0--------6--6--6---6-6------------------------------------|
D|---------7------7------7-----------------------5------------------------------------|
A|--0-----------------------------0--------------0------------------------------------|
D|------------------------------------------------------------------------------------|
Tell my cherry blossom girl

D   G
Yes it's true
D   G
Yes it's true
D   G
This is true






************************************
T    Thumb this note
| /   slide up
| \   slide down
| h   hammer-on
| p   pull-off
| ~   vibrato
| +   harmonic
| x   Mute note
| b   Bend
| pb  Pre-bend
| br  Bend release
| pbr Pre-bend release
| brb Bend release bend

************************************
Tap to rate this tab
# A B C D E F G H I J K L M N O P Q R S T U V W X Y Z