Airbourne - Heartbreaker tab

-----------------------------------------------------------------------------
                        Heartbreaker  -  Airbourne
-----------------------------------------------------------------------------

Tabbed by: Sir Sidd Sixx
Email: sirsiddsixx@web.de

Tuning: Standard

---------------
INTRO/MAIN RIFF
---------------

e|----------------3---2-3---3-2-------------3---------------------|
H|----------3-----3---3-3---3-3-------------3-----3---------------|
G|2---2-----2-----2---2-2---2-2-2-2---2-----0-----2---------------|
D|2---2-----0-------------------2-2---2-----------0-----2---2-2---|
A|0---0-0-0---0-0-----------------0---0-0-0---0-0---0-3-0---0-0---|
E|--------------------------------------------------------------3-|

  1   2   3   4   1   2   3   4   1   2   3   4   1   2   3   4   

-----
VERSE
-----

e|------3---3-----------2---2-------------------------------------------|
H|------3---3-----------3---3-------------------------------------------|
G|------0---0-----------2---2-----------2---2---------------------------|
D|--------------------------------------2---2---------------------------|
A|0-0-0-------0-0-0-0-0-------0-0-0-0-0-0---0-0-0-0-0-0-0-0-0-0-0-0-0-0-|
E|----------------------------------------------------------------------|

  3   4   1   2   3   4   1   2   3   4   1   2   3   4   1   2   3   4  

e|------3---3-----------2---2-------------------------------------------|
H|------3---3-----------3---3-------------------------------------------|
G|------0---0-----------2---2-----------2---2-----------2---2-----------|
D|--------------------------------------2---2-----------2---2-----2---2-|
A|0-0-0-------0-0-0-0-0-------0-0-0-0-0-0---0-0-0-0-0---0---0-0-0-0-0-0-|
E|----------------------------------------------------3-----------------|

  3   4   1   2   3   4   1   2   3   4   1   2   3   4   1   2   3   4 

e|------3---3-----3---3-2---2-----2---2---------------------------------|
H|------3---3-----3---3-3---3-----3---3---------------------------------|
G|------0---0-----0---0-2---2-----2---2-2---2-----2-----2---2-----2-----|
D|2---2---------------------------------2---2-----2-----2---2-----2-----|
A|0-0-0-------0-0---0---------0-0---0---0---0-0-0-0-0---0---0---0-0-3-2-|
E|----------------------------------------------------3-----------------|
 
  3   4   1   2   3   4   1   2   3   4   1   2   3   4   1   2   3   4  

e|------3-----------------------------------------------------------------|
H|------3---------------3-------------------------------------------------|
G|2-----0---------------2---------------2---------------------------------|
D|2-----0---------------0---------------2---------------------------------|
A|0-3-2-2-----------2-3-------------3-2-0---------------------------------|
E|------3-----------------------------------------------------------------|

  3   4   1   2   3   4   1   2   3   4   1   2   3   4   1   2   3   4  

-------
REFRAIN
-------

e|------------3---------------------------------------------------|
H|------------3-------------------3-------------------------------|
G|2-----------0-------------------2-----------2-------------------|
D|2-----2-----0-------------------0-----5-----2---------------2---|
A|0-----2-----2---------------2-3-------3-----0---------------0---|
E|------0-----3-------------------------------------------------3-|
   
  1   2   3   4   1   2   3   4   1   2   3   4   1   2   3   4  

e|------------3---------------------------------------------------|
H|------------3-------------------3-----------3-----3-----3---3---|
G|2-----------0-------------------2-----------2-----2-----2---2---|
D|2-----2-----0-------------------0-----------0-----0-----0---0---|
A|0-----2-----2---------------2-3-------3---4---------------------|
E|------0-----3---------------------------------------------------|

  1   2   3   4   1   2   3   4   1   2   3   4   1   2   3   4


---------
INTERLUDE
---------

e|----------------------------------------------------------------|
H|----------2-----3---2-3---3-3-2-----------2-----3---3/8---8-8---|
G|4---4-----2-----2---2-2---2-2-2-4---4-----2-----2---2/7---7-7---|
D|2---2-2-2-2-2-2-2---2-2---2-2-2-2---2-2-2-2-2-2-2-2-------------|
A|2---2---------------------------2---2---------------------------|
E|----------------------------------------------------------------|

  1   2   3   4   1   2   3   4   1   2   3   4   1   2   3   4   

e|----------------------------------------------------------------|
H|----------2-----3---2-3---3-3-2-------------------3-3-3-3-------|
G|4---4-----2-----2---2-2---2-2-2-------------------2-2-2-2-------|
D|2---2-2-2-2-2-2-2---2-2---2-2-2-2-----2-----2-----0-0-0-0-------|
A|2---2---------------------------2-----2-----2-------------------|
E|--------------------------------0-----0-----0-------------------|

  1   2   3   4   1   2   3   4   1   2   3   4   1   2   3   4   


---------
SOLO PART
---------

e|----------------------------------------------------------------|
H|--------------------------------8---8-----8---8-7---7-----7---7-|
G|2---2-----2-----2---2-----2---2-7---7-----7---7-7---7-----7---7-|
D|2---2-----2-----2---2-----2---2-7---7-----7---7-7---7-----7---7-|
A|0---0-0-0-0-0---0---0-0-0-0-0-0-0---0-0-0-0-0-0-0---0-0-0-0-0-0-|
E|--------------3-------------------------------------------------|

  1   2   3   4   1   2   3   4   1   2   3   4   1   2   3   4   



************************************

| /   slide up
| \   slide down
| h   hammer-on
| p   pull-off
| ~   vibrato
| +   harmonic
| x   Mute note
| b   Bend
| pb  Pre-bend
| br  Bend release
| pbr Pre-bend release
| brb Bend release bend

************************************
Tap to rate this tab
 
# A B C D E F G H I J K L M N O P Q R S T U V W X Y Z