Song name
# A B C D E F G H I J K L M N O P Q R S T U V W X Y Z

Airbourne - Too Much Too Young Too Fast tab

-------------------------------------------------------------------------------
			     TOO MUCH, TOO YOUNG, TOO FAST - Airbourne
-------------------------------------------------------------------------------

Tabbed by: Isaias Garcia (TexasFury)

Tuning: Standard

Source: my GP 5.2 tab at Ultimate-Guitar


Guitar - rhythm - left

Intro

     E  E  Q    E  E  Q       E  E  E  E  H           E  E  Q    E  E  Q     
E||------------------------|-----------------------|--3--3------------------|
B||------------------------|--3--3-----------------|--3--3-------3--3-------|
G||--9--9-------7--7-------|--2--2-----2--L--------|--0--0-------2--2-------|
D||--7--7-------5--5-------|--0--0-----2--L--------|--0--0-------0--0-------|
A||--0--0-------0--0-------|--0--0-----0--L--------|-------------0--0-------|
E||------------------------|-----------------------|--3--3------------------|


  E  E  E  E  E  S S  Q        E  E  Q    E  E  Q       E  E  E  E  H         
-----3----------------------|------------------------|-----------------------|
--3--3----------------------|------------------------|-----------------------|
--2--0-----2--L-------------|--9--9--L----7--7--L----|--7--7--L--2--L--------|
--0--0-----2--L-------------|--7--7--L----5--5--L----|--4--4--L--2--L--------|
-----------0--L-------------|------------------------|-----------0--L--------|
--2--3-----------x-x-12\----|------------------------|-----------------------|


                                                      Verse 1

                                                            PM PM PM PM PM PM  
  E  E  Q    E  E  Q       E  E  E  E  E  E  E  E     E  E  E  E  E  E  E  E   
--3--3--L---------------|--------------------------|--------------------------|
--3--3--L----3--3--L----|--3-----------------------|--------------------------|
--0--0--L----2--2--L----|--2--0-----2--L--2-----2--|--L--2--------------------|
--0--0--L----0--0--L----|--0--0-----2--L--2-----2--|--L--2--------------------|
-------------0--0--L----|--0--------0--L--0-----0--|--L--0--0--0--0--0--0--0--|
--3--3--L---------------|-----3--------------------|--------------------------|


  PM PM PM PM PM PM PM                                         PM    PM PM     
  E  E  E  E  E  E  E  E     E  E  Q    Q    E  E     E  E  E  E  E  E  E  E   
-----------------------3--|--L------------------3--|--L-----------------------|
-----------------------3--|--L------------------3--|--L-----------------------|
-----------------------0--|--L----------2-------0--|--L--2--2-----2--------2--|
-----------------------0--|--L--0--2----2-------0--|--L--0--2-----2--------2--|
--0--0--0--0--0--0--0-----|-----0--0----0----------|-----0--0--0--0--0--0--0--|
-----------------------3--|--L------------------3--|--L-----------------------|


        PM PM PM PM PM PM    PM PM PM PM PM PM PM                              
  E  E  E  E  E  E  E  E     E  E  E  E  E  E  E  E     E  E  Q    Q    E  E   
--------------------------|-----------------------3--|--L------------------3--|
--------------------------|-----------------------3--|--L------------------3--|
--L--2--------------------|-----------------------0--|--L----------2----x--0--|
--L--2--------------------|-----------------------0--|--L--0--2----2----x--0--|
--L--0--0--0--0--0--0--0--|--0--0--0--0--0--0--0-----|-----0--0----0----x-----|
--------------------------|-----------------------3--|--L------------------3--|


           PM    PM PM             PM PM PM PM PM PM    PM PM PM PM PM PM PM     
  E  E  E  E  E  E  E  E     E  E  E  E  E  E  E  E     E  E  E  E  E  E  E  E   
--L-----------------------|--------------------------|-----------------------3--|
--L-----------------------|--------------------------|-----------------------3--|
--L--2--2-----2--------2--|--L--2--------------------|-----------------------0--|
--L--0--2-----2--------2--|--L--2--------------------|-----------------------0--|
-----0--0--0--0--0-----0--|--L--0--0--0--0--0--0--0--|--0--0--0--0--0--0--0-----|
--L-----------------3-----|--------------------------|-----------------------3--|


                PM PM                PM    PM PM             PM PM PM PM PM PM  
  E  E  Q    E  E  E  E     E  E  E  E  E  E  E  E     E  E  E  E  E  E  E  E   
--L-------------------3--|--L-----------------------|--------------------------|
--L-------------------3--|--L-----------------------|--------------------------|
--L----------2--------0--|--L--2--2-----2--------2--|--L--2--------------------|
--L--0--2----2--------0--|--L--0--2-----2--------2--|--L--2--------------------|
-----0--0----0--0--0-----|-----0--0--0--0--0--0--0--|--L--0--0--0--0--0--0--0--|
--L-------------------3--|--L-----------------------|--------------------------|


  PM PM PM PM PM PM PM                     PM                   PM    PM        
  E  E  E  E  E  E  E  E     E  E  Q    E  E  E  E     E  E  E  E  E  E  E  E   
-----------------------3--|--L-------------------3--|--L--------------------3--|
-----------------------3--|--L-------------------3--|--L--------------------3--|
-----------------------0--|--L----------2-----2--0--|--L--2--2-----2-----2--0--|
-----------------------0--|--L--0--2----2-----2--0--|--L--0--2-----2-----2--0--|
--0--0--0--0--0--0--0-----|-----0--0----0--0--0-----|-----0--0--0--0--0--0-----|
-----------------------3--|--L-------------------3--|--L--------------------3--|


  H.           E  E     E  E  E  E  E  E  E  E     E  E  E  E  E  E  E  E   
--L------------------|--------------------------|--------------------------|
--L------------------|--------------------------|--------------------------|
--L------------------|--------------------------|--------------------------|
--L------------------|-----------------------2--|--L--2--2--2--2--2--2--2--|
---------------------|-----------------------2--|--L--2--2--2--2--2--2--2--|
--L------------3--3--|--3--3--3--3--3--2--0--0--|--L--0--0--0--0--0--0--0--|


                           Chorus 1

  E  E  E  E  Q    Q       E  E  Q     E  E  Q       Q    E  E  H           E  E  Q    E  E  Q     
--------------3---------|-------------------------|----------------------|--3--3--L---------------|
--5--5--5-----3----3----|-------------------------|--3----L--------------|--3--3--L----3--3--L----|
--4--4--4-----0----2----|--9--9--LS----7--7--L----|--2----L--2--L--------|--0--0--L----2--2--L----|
--2--2--2--0--0----0----|--7--7--LS----5--5--L----|--0----L--2--L--------|--0--0--L----0--0--L----|
-----------0-------0----|-------------------------|--0----L--0--L--------|------------------------|
--------------3---------|-------------------------|----------------------|--3--3--L---------------|


  E  E  E  E  E  S S  Q        E  E  Q    E  E  Q       Q    E  E  H         
----------------------------|------------------------|----------------------|
--3-------------------------|------------------------|--3----L--------------|
--2--0-----2--L-------------|--9--9--L----7--7--L----|--2----L--2--L--------|
--0--0-----2--L-------------|--7--7--L----5--5--L----|--0----L--2--L--------|
--0--------0--L-------------|------------------------|--0----L--0--L--------|
-----3-----------x-x-12\----|------------------------|----------------------|


                                                    Verse 2

                                                            PM PM PM PM PM PM  
  E  E  Q    E  E  Q       E  E  E  E  E  E  E  E     E  E  E  E  E  E  E  E   
--3--3--3---------------|--------------------------|--------------------------|
--3--3--3----3--3--L----|--3-----------------------|--------------------------|
--0--0--0----2--2--L----|--2--0-----2--L--2-----2--|--L--2--------------------|
--0--0--0----0--0--L----|--0--0-----2--L--2-----2--|--L--2--------------------|
------------------------|--0--------0--L--0-----0--|--L--0--0--0--0--0--0--0--|
--3--3--3---------------|-----3--------------------|--------------------------|


  PM PM PM PM PM PM PM                     PM PM                PM    PM PM     
  E  E  E  E  E  E  E  E     E  E  Q    E  E  E  E     E  E  E  E  E  E  E  E   
-----------------------3--|--L-------------------3--|--L-----------------------|
-----------------------3--|--L-------------------3--|--L-----------------------|
-----------------------0--|--L----------2--------0--|--L--2--2-----2--------2--|
-----------------------0--|--L--0--2----2--2--2--0--|--L--0--2-----2--------2--|
--0--0--0--0--0--0--0-----|-----0--0----0--0--0-----|-----0--0--0--0--0--0--0--|
-----------------------3--|--L-------------------3--|--L-----------------------|


        PM PM PM PM PM PM    PM PM PM PM PM PM PM                     PM PM     
  E  E  E  E  E  E  E  E     E  E  E  E  E  E  E  E     E  E  Q    E  E  E  E   
--------------------------|-----------------------3--|--L-------------------3--|
--------------------------|-----------------------3--|--L-------------------3--|
--L--2--------------------|-----------------------0--|--L----------2--------0--|
--L--2--------------------|-----------------------0--|--L--0--2----2--------0--|
--L--0--0--0--0--0--0--0--|--0--0--0--0--0--0--0-----|-----0--0----0--0--0-----|
--------------------------|-----------------------3--|--L-------------------3--|


           PM    PM PM             PM PM PM PM PM PM    PM PM PM PM PM PM PM     
  E  E  E  E  E  E  E  E     E  E  E  E  E  E  E  E     E  E  E  E  E  E  E  E   
--L-----------------------|--------------------------|-----------------------3--|
--L-----------------------|--------------------------|-----------------------3--|
--L--2--2-----2--------2--|--L--2--------------------|-----------------------0--|
--L--0--2-----2--------2--|--L--2--------------------|-----------------------0--|
-----0--0--0--0--0--0--0--|--L--0--0--0--0--0--0--0--|--0--0--0--0--0--0--0-----|
--L-----------------------|--------------------------|-----------------------3--|


                PM PM                PM    PM PM             PM PM PM PM PM PM  
  E  E  Q    E  E  E  E     E  E  E  E  E  E  E  E     E  E  E  E  E  E  E  E   
--L-------------------3--|--L-----------------------|--------------------------|
--L-------------------3--|--L-----------------------|--------------------------|
--L----------2--------0--|--L--2--2-----2--------2--|--L--2--------------------|
--L--0--2----2--------0--|--L--0--2-----2--------2--|--L--2--------------------|
-----0--0----0--0--------|-----0--0--0--0--0-----0--|--L--0--0--0--0--0--0--0--|
--L----------------3--3--|--L-----------------3-----|--------------------------|


  PM PM PM PM PM PM PM                     PM                   PM    PM        
  E  E  E  E  E  E  E  E     E  E  Q    E  E  E  E     E  E  E  E  E  E  E  E   
-----------------------3--|--L-------------------3--|--L--------------------3--|
-----------------------3--|--L-------------------3--|--L--------------------3--|
-----------------------0--|--L----------2-----2--0--|--L--2--2-----2--------0--|
-----------------------0--|--L--0--2----2-----2--0--|--L--0--2-----2--------0--|
--0--0--0--0--0--0--0-----|-----0--0----0--0--0-----|-----0--0--0--0--3--2-----|
-----------------------3--|--L-------------------3--|--L--------------------3--|


  E  E  E  E  E  E  E  E     E  E  E  E  E  E  E  E     E  E  E  E  E  E  E  E   
--L-----------------------|--------------------------|--------------------------|
--L-----------------------|--------------------------|--------------------------|
--L-----------------------|--------------------------|--------------------------|
--L--0--0--0--------------|-----------------------2--|--L--2--2--2--2--2--2--2--|
--------------------------|-----------------------2--|--L--2--2--2--2--2--2--2--|
--L--3--3--3--3--3--3--3--|--3--3--3--3--3--2--0--0--|--L--0--0--0--0--0--0--0--|


                         Chorus 2

  E  E  E  E  Q    Q       E  E  Q     E  E  Q       Q    E  E  H           E  E  Q    E  E  Q     
--------------3---------|-------------------------|----------------------|--3--3--L---------------|
--5--5--5-----3----3----|-------------------------|--3----L--------------|--3--3--L----3--3--L----|
--4--4--4--0--0----2----|--9--9--LS----7--7--L----|--2----L--2--L--------|--0--0--L----2--2--L----|
--2--2--2--0--0----0----|--7--7--LS----5--5--L----|--0----L--2--L--------|--0--0--L----0--0--L----|
-------------------0----|-------------------------|--0----L--0--L--------|------------------------|
--------------3---------|-------------------------|----------------------|--3--3--L---------------|


  E  E  E  E  E  S S  Q        E  E  Q    E  E  Q       Q    E  E  H         
----------------------------|------------------------|----------------------|
--3-------------------------|------------------------|--3----L--------------|
--2--0-----2--L-------------|--9--9--L----7--7--L----|--2----L--2--L--------|
--0--0-----2--L-------------|--7--7--L----5--5--L----|--0----L--2--L--------|
--0--------0--L-------------|------------------------|--0----L--0--L--------|
-----3-----------x-x-12\----|------------------------|----------------------|


  E  E  Q    E  E  Q       E  E  E  E  E  E  E  E     Q    Q    Q    Q       E  E  E  E  Q    Q     
--3--3--L---------------|--------------------------|----------------------|--------------3----2----|
--3--3--L----3--3--L----|--3-----------------------|----------------------|--------------3----3----|
--0--0--L----2--2--L----|--2--0-----2--L--2--------|----------------------|--9--9--9--0--0----2----|
--0--0--L----0--0--L----|--0--0-----2--L--2--------|----------------------|--9--9--9--0--0----0----|
------------------------|--0--------0--L--0--------|--2----2----2----2----|--7--7--7----------0----|
--3--3--L---------------|-----3--------------3--2--|--0----0----0----0----|--------------3---------|


 Guitar Solo

  E  E  Q    E  E  Q       E  E  E  E  E  E  Q       E  E  Q    E  E  Q     
-------------3--3--L----|-------------------------|--3--3--L---------------|
-------------3--3--L----|--3--3--L----------------|--3--3--L----3--3--L----|
--2--2--L----0--0--L----|--2--2--L--2--L--2--2----|--0--0--L----2--2--L----|
--2--2--L----0--0--L----|--0--0--L--2--L--2--2----|--0--0--L----0--0--L----|
--0--0--L---------------|--0--0--L--0--L--0--0----|-------------0--0--L----|
-------------3--3--L----|-------------------------|--3--3--L---------------|


  E  E  E  E  E  E  E  E     E  E  Q    E  E  Q       E  E  E  E  E  E  E  E   
--------------------------|-------------3--3--L----|--------------------------|
--3--3--L-----------------|-------------3--3--L----|--3--3--L-----------------|
--2--0--L--2--L--2--2-----|--2--2--L----0--0--L----|--2--2--L--2--L--2--2--2--|
--0--0--L--2--L--2--2-----|--2--2--L----0--0--L----|--0--0--L--2--L--2--2--2--|
-----------0--L--0--0-----|--0--0--L---------------|--0--0--L--0--L--0--0--0--|
--2--3--L--------------3--|-------------3--3--L----|--------------------------|


  E  E  Q    E  E  Q       E  E  E  E  E  E  E  E     Q    Q    Q    Q       E  E  E  E  Q    Q     
--3--3--L---------------|--------------------------|----------------------|--------------3----2----|
--3--3--L----3--3--L----|--3--3--L-----------------|----------------------|--------------3----3----|
--0--0--L----2--2--L----|--2--0--L--2--L--2--------|----------------------|--9--9--9--0--0----2----|
--0--0--L----0--0--L----|--0--0--L--2--L--2--------|----------------------|--9--9--9--0--0----0----|
-------------0--0--L----|-----------0--L--0--------|--2----2----2----2----|--7--7--7----------0----|
--3--3--L---------------|--2--3--L-----------3--2--|--0----0----0----0----|--------------3---------|


Chorus 3

  E  E  Q    E  E  Q       Q    E  E  H           E  E  Q    E  E  Q       E  E  E  E  E  E  Q     
------------------------|----------------------|--3--3--L---------------|-------------------------|
------------------------|--3----L--------------|--3--3--L----3--3--L----|--3----------------------|
--9--9--L----7--7--L----|--2----L--2--L--------|--0--0--L----2--2--L----|--2--0-----2--L--2--2----|
--7--7--L----5--5--L----|--0----L--2--L--------|--0--0--L----0--0--L----|--0--0-----2--L--2--2----|
------------------------|--0----L--0--L--------|------------------------|--0--------0--L--0--0----|
------------------------|----------------------|--3--3--L---------------|-----3-------------------|


  E  E  Q     E  E  Q       Q    E  E  H           E  E  Q    E  E  Q       E  E  E  E  E  E  Q     
-------------------------|----------------------|--3--3--L---------------|-------------------------|
-------------------------|--3----L--------------|--3--3--L----3--3--L----|--3----------------------|
--9--9--LS----7--7--L----|--2----L--2--L--------|--0--0--L----2--2--L----|--2--0-----2--L--2--2----|
--7--7--LS----5--5--L----|--0----L--2--L--------|--0--0--L----0--0--L----|--0--0-----2--L--2--2----|
-------------------------|--0----L--0--L--------|------------------------|--0--------0--L--0--0----|
-------------------------|----------------------|--3--3--L---------------|-----3-------------------|


  Q    Q    Q    Q       Q    E  E  E  E  E  E     E  E  E  E  E  E  E  E   
----------------------|-------------------------|--------------------------|
----------------------|-------------------------|--------------------------|
----------------------|-------------------------|--------------------------|
--5----5----5----5----|--5----5--5-----7-----7--|--7--7--7--7--7--7--7--7--|
--3----3----3----3----|--3----3--3-----4-----5--|--5--5--5--5--5--5--5--5--|
----------------------|-------------------------|--------------------------|


  E  E  E   E   Q     Q        E  E  E  E  H           E  E  E  E  H         
----------------------------|-----------------------|-----------------------|
----------------------------|-----------------------|--3--3--3--------------|
----------------------------|--9--9--9--9--7--------|--2--2--2--2--L--------|
-----9-----12---L----12\----|--7--7--7--7--5--------|--0--0--0--2--L--------|
-----7-----10---L----10\----|-----------------------|--0--0--0--0--L--------|
----------------------------|-----------------------|-----------------------|


  E  E  Q    E  E  Q       E  E  E  E  E  E  Q       E  E  Q     E  E  Q     
--3--3--L---------------|-------------------------|-------------------------|
--3--3--L----3--3--L----|--3----------------------|-------------------------|
--0--0--L----2--2--L----|--2--0-----2--L--2--2----|--9--9--9S----7--7--7----|
--0--0--L----0--0--L----|--0--0-----2--L--2--2----|--7--7--7S----5--5--5----|
------------------------|--0--------0--L--0--0----|-------------------------|
--3--3--L---------------|-----3-------------------|-------------------------|


  E  E  E  E  E  E  Q       E  E  Q    E  E  Q       E  E  E  E  E  E  E  E   
-------------------------|--3--3--L---------------|--------------------------|
--3--3--L----------------|--3--3--L----3--3--L----|--3-----------------------|
--2--2--L--2--L--2--2----|--0--0--L----2--2--L----|--2--0-----2--L--2--2-----|
--0--0--L--2--L--2--2----|--0--0--L----0--0--L----|--0--0-----2--L--2--2-----|
--0--0--L--0--L--0--0----|------------------------|--0--------0--L--0--0-----|
-------------------------|--3--3--L---------------|-----3-----------------3--|


  E  E  E  E  E  E  E  E     E  E  E  E  Q    Q       Q    Q    H           E  E  E  E  H         
--------------------------|------------------------|--3----3-------------|-----------------------|
--------------------------|--3--3--3---------------|--3----3----3--------|-----------------------|
--9--9--9--9--7--7--7--7--|--2--2--2--2--L----2----|--0----0----2--------|-----------2--L--------|
--7--7--7--7--5--5--5--5--|--0--0--0--2--L----2----|--0----0----0--------|-----------2--L--------|
--------------------------|--0--0--0--0--L----0----|------------0--------|-----------0--L--------|
--------------------------|------------------------|--3----3-------------|--2--3--2--------------|


  W                   W                   E  S S Q    H          
-------------------|-------------------|-----------------------||
-------------------|-------------------|-----------------------||
--L----------------|--L----------------|--L--2-2-2-------------||
--L----------------|--L----------------|--L--2-2-2-------------||
--L----------------|--L----------------|--L--0-0-0-------------||
-------------------|-------------------|-----------------------||




Guitar - rhythm - right

     W                   W                   W                   E  E  E  E  E  S S  Q      
E||-------------------|-------------------|-------------------|----------------------------|
B||-------------------|-------------------|-------------------|--3--3----------------------|
G||-------------------|-------------------|-------------------|--2--0-----2--L-------------|
D||-------------------|-------------------|-------------------|--0--0-----2--L-------------|
A||-------------------|-------------------|-------------------|-----------0--L-------------|
E||-------------------|-------------------|-------------------|--2--3-----------x-x-12\----|


  E  E  Q    E  E  Q       E  E  E  E  H           E  E  Q    E  E  Q     
-------------3--3--L----|-----------------------|--3--3--L---------------|
-------------3--3--L----|-----------------------|--3--3--L----3--3--L----|
--2--2--L----0--0--L----|--2--2--L--2--L--------|--0--0--L----2--2--L----|
--2--2--L----0--0--L----|--0--0--L--2--L--------|--0--0--L----0--0--L----|
--0--0--L---------------|--0--0--L--0--L--------|-------------0--0--L----|
-------------3--3--L----|-----------------------|--3--3--L---------------|



Verse 1
                                   PM PM PM PM PM PM    PM PM PM PM PM PM PM     
  E  E  E  E  E  E  E  E     E  E  E  E  E  E  E  E     E  E  E  E  E  E  E  E   
--------------------------|--------------------------|-----------------------3--|
--3--3--------------------|--------------------------|-----------------------3--|
--2--2-----2--L--2-----2--|--L--2--------------------|-----------------------0--|
--0--0-----2--L--2-----2--|--L--2--------------------|-----------------------0--|
--0--0-----0--L--0-----0--|--L--0--0--0--0--0--0--0--|--0--0--0--0--0--0--0-----|
--------------------------|--------------------------|-----------------------3--|


                                                          PM PM PM PM PM PM  
  E  E  Q    Q    E  E     E  E  Q    Q    E  E     E  E  E  E  E  E  E  E   
--L------------------3--|--3---------------------|--------------------------|
--L------------------3--|--3---------------------|--------------------------|
--L--2--2----2-------0--|--0--2--2----2----x--2--|--L--2--------------------|
--L--0--2----2-------0--|--0--0--2----2----x--2--|--L--2--------------------|
-----0--0----0----------|-----0--0----0----x--0--|--L--0--0--0--0--0--0--0--|
--L------------------3--|--3---------------------|--------------------------|


  PM PM PM PM PM PM PM                                                       
  E  E  E  E  E  E  E  E     E  E  Q    Q    E  E     E  E  Q    Q    E  E   
-----------------------3--|--L------------------3--|--L---------------------|
-----------------------3--|--L------------------3--|--L---------------------|
-----------------------0--|--L--2--2----2----x--0--|--L--2--2----2----x--2--|
-----------------------0--|--L--0--2----2----x--0--|--L--0--2----2----x--2--|
--0--0--0--0--0--0--0-----|-----0--0----0----x-----|-----0--0----0----x--0--|
-----------------------3--|--L------------------3--|--L---------------------|


        PM PM PM PM PM PM    PM PM PM PM PM PM PM                              
  E  E  E  E  E  E  E  E     E  E  E  E  E  E  E  E     E  E  Q    Q    E  E   
--------------------------|-----------------------3--|--L------------------3--|
--------------------------|-----------------------3--|--L------------------3--|
--L--2--------------------|-----------------------0--|--L--2--2----2-------0--|
--L--2--------------------|-----------------------0--|--L--0--2----2-------0--|
--L--0--0--0--0--0--0--0--|--0--0--0--0--0--0--0-----|-----0--0----0----------|
--------------------------|-----------------------3--|--L------------------3--|


                                 PM PM PM PM PM PM    PM PM PM PM PM PM PM     
  E  E  Q    Q    E  E     E  E  E  E  E  E  E  E     E  E  E  E  E  E  E  E   
--L---------------------|--------------------------|-----------------------3--|
--L---------------------|--------------------------|-----------------------3--|
--L--2--2----2-------2--|--2--2--------------------|-----------------------0--|
--L--0--2----2-------2--|--2--2--------------------|-----------------------0--|
-----0--0----0-------0--|--0--0--0--0--0--0--0--0--|--0--0--0--0--0--0--0-----|
--L---------------------|--------------------------|-----------------------3--|


                PM                   PM    PM               PM PM PM PM PM PM  
  E  E  Q    E  E  E  E     E  E  E  E  E  E  E  E     Q    E  E  E  E  E  E   
--L-------------------3--|--L--------------------3--|--L----------------------|
--L-------------------3--|--L--------------------3--|--L----------------------|
--L----------2-----2--0--|--L--2--2-----2-----2--0--|--L----------------------|
--L--0--2----2-----2--0--|--L--0--2-----2-----2--0--|--L----------------------|
-----0--0----0--0--0-----|-----0--0--0--0--0--0-----|-------------------------|
--L-------------------3--|--L--------------------3--|--L----3--3--3--3--3--3--|


  E  E  E  E  E  E  E  E     E  E  E  E  E  E  E  E     E  E  Q    Q    Q     
--------------------------|--------------------------|-------------3---------|
--------------------------|--------------------------|-------------3----3----|
--------------------------|--------------------------|--9--9--9----0----2----|
--------------------------|--2--2--2--2--2--2--2--2--|--9--9--9----0----0----|
--------------------------|--2--2--2--2--2--2--2--2--|--7--7--7---------0----|
--3--3--3--3--3--2--0--0--|--0--0--0--0--0--0--0--0--|-------------3---------|



Chorus 1

  E  E  Q    E  E  Q       E  E  E  E  H           E  E  Q    E  E  Q     
-------------3--3--L----|-----------------------|--3--3--L---------------|
-------------3--3--L----|-----------------------|--3--3--L----3--3--L----|
--2--2--L----0--0--L----|--2--2--L--2--L--------|--0--0--L----2--2--L----|
--2--2--L----0--0--L----|--0--0--L--2--L--------|--0--0--L----0--0--L----|
--0--0--L---------------|--0--0--L--0--L--------|-------------0--0--L----|
-------------3--3--L----|-----------------------|--3--3--L---------------|


  E  E  E  E  E  S S  Q        E  E  Q    E  E  Q       E  E  E  E  H         
-----------0--L-------------|-------------3--3--L----|-----------------------|
--3--3----------------------|-------------3--3--L----|-----------------------|
--2--2-----2--L-------------|--2--2--L----0--0--L----|--2--2--L--2--L--------|
--0--0-----2--L-------------|--2--2--L----0--0--L----|--0--0--L--2--L--------|
--0--0-----0--L-------------|--0--0--L---------------|--0--0--L--0--L--------|
-----------------x-x-12\----|-------------3--3--L----|-----------------------|


                                                    Verse 2

                                                            PM PM PM PM PM PM  
  E  E  Q    E  E  Q       E  E  E  E  E  E  E  E     E  E  E  E  E  E  E  E   
--3--3--3---------------|--------------------------|--------------------------|
--3--3--3----3--3--L----|--3--3--------------------|--------------------------|
--0--0--0----2--2--L----|--2--0-----2--L--2-----2--|--L--2--------------------|
--0--0--0----0--0--L----|--0--0-----2--L--2-----2--|--L--2--------------------|
-------------0--0--L----|-----------0--L--0-----0--|--L--0--0--0--0--0--0--0--|
--3--3--3---------------|--2--3--------------------|--------------------------|


  PM PM PM PM PM PM PM                     PM PM                              
  E  E  E  E  E  E  E  E     E  E  Q    E  E  E  E     E  E  Q    Q    E  E   
-----------------------3--|--L-------------------3--|--L---------------------|
-----------------------3--|--L-------------------3--|--L---------------------|
-----------------------0--|--L--2--2----2--------0--|--L--2--2----2-------2--|
-----------------------0--|--L--0--2----2--------0--|--L--0--2----2-------2--|
--0--0--0--0--0--0--0-----|-----0--0----0--0--0-----|-----0--0----0-------0--|
-----------------------3--|--L-------------------3--|--L---------------------|


        PM PM PM PM PM PM    PM PM PM PM PM PM PM                              
  E  E  E  E  E  E  E  E     E  E  E  E  E  E  E  E     E  E  Q    Q    E  E   
--------------------------|-----------------------3--|--L------------------3--|
--------------------------|-----------------------3--|--L------------------3--|
--L--2--------------------|-----------------------0--|--L----------2-------0--|
--L--2--------------------|-----------------------0--|--L--0--2----2-------0--|
--L--0--0--0--0--0--0--0--|--0--0--0--0--0--0--0-----|-----0--0----0----------|
--------------------------|-----------------------3--|--L------------------3--|


           PM    PM PM             PM PM PM PM PM PM    PM PM PM PM PM PM PM     
  E  E  E  E  E  E  E  E     E  E  E  E  E  E  E  E     E  E  E  E  E  E  E  E   
--L-----------------------|--------------------------|-----------------------3--|
--L-----------------------|--------------------------|-----------------------3--|
--L--2--2-----2--------2--|--L--2--------------------|-----------------------0--|
--L--0--2-----2--------2--|--L--2--------------------|-----------------------0--|
-----0--0--0--0--0--0--0--|--L--0--0--0--0--0--0--0--|--0--0--0--0--0--0--0-----|
--L-----------------------|--------------------------|-----------------------3--|


                                                          PM PM PM PM PM PM  
  E  E  Q    Q    E  E     E  E  Q    Q    E  E     E  E  E  E  E  E  E  E   
--L------------------3--|--L---------------------|--------------------------|
--L------------------3--|--L---------------------|--------------------------|
--L----------2-------0--|--L--2--2----2-------2--|--L--2--------------------|
--L--0--2----2-------0--|--L--0--2----2-------2--|--L--2--------------------|
-----0--0----0----------|-----0--0----0-------0--|--L--0--0--0--0--0--0--0--|
--L------------------3--|--L---------------------|--------------------------|


  PM PM PM PM PM PM PM                     PM                   PM              
  E  E  E  E  E  E  E  E     E  E  Q    E  E  E  E     E  E  E  E  E  E  E  E   
-----------------------3--|--L-------------------3--|--L--------------------3--|
-----------------------3--|--L-------------------3--|--L--------------------3--|
-----------------------0--|--L----------2-----2--0--|--L--2--2-----2--------0--|
-----------------------0--|--L--0--2----2-----2--0--|--L--0--2-----2--------0--|
--0--0--0--0--0--0--0-----|-----0--0----0--0--0-----|-----0--0--0--0--3--2-----|
-----------------------3--|--L-------------------3--|--L--------------------3--|


  H.           E  E     E  E  E  E  E  E  E  E     E  E  E  E  E  E  E  E   
--L------------L-----|--------------------------|--------------------------|
--L------------L-----|--------------------------|--------------------------|
--L------------L-----|--------------------------|--------------------------|
--L------------L-----|--------------------------|--2--2--2--2--2--2--2--2--|
---------------------|--------------------------|--2--2--2--2--2--2--2--2--|
--L------------L--3--|--3--3--3--3--3--2--0--0--|--0--0--0--0--0--0--0--0--|


                         Chorus 2

  E  E  E  E  Q    Q       E  E  Q    E  E  Q       E  E  E  E  H           E  E  Q    E  E  Q     
--------------3---------|-------------3--3--L----|-----------------------|--3--3--L---------------|
--------------3----3----|-------------3--3--L----|-----------------------|--3--3--L----3--3--L----|
--9--9--9--0--0----2----|--2--2--L----0--0--L----|--2--2--L--2--L--------|--0--0--L----2--2--L----|
--9--9--9--0--0----0----|--2--2--L----0--0--L----|--0--0--L--2--L--------|--0--0--L----0--0--L----|
--7--7--7----------0----|--0--0--L---------------|--0--0--L--0--L--------|-------------0--0--L----|
--------------3---------|-------------3--3--L----|-----------------------|--3--3--L---------------|


  E  E  E  E  E  S S  Q        E  E  Q    E  E  Q       E  E  E  E  H         
-----------0--L-------------|-------------3--3--L----|-----------------------|
--3--3----------------------|-------------3--3--L----|-----------------------|
--2--2-----2--L-------------|--2--2--L----0--0--L----|--2--2--L--2--L--------|
--0--0-----2--L-------------|--2--2--L----0--0--L----|--0--0--L--2--L--------|
--0--0-----0--L-------------|--0--0--L---------------|--0--0--L--0--L--------|
-----------------x-x-12\----|-------------3--3--L----|-----------------------|


  E  E  Q    E  E  Q       E  E  E  E  E  E  E  E     Q    E  E  Q    Q     
--3--3--L---------------|--------------------------|-----------------------|
--3--3--L----3--3--L----|--3--3--------------------|-----------------------|
--0--0--L----2--2--L----|--2--0-----2--L--2--------|-----------------------|
--0--0--L----0--0--L----|--0--0-----2--L--2--------|-----------------------|
-------------0--0--L----|-----------0--L--0--------|--2----2--2--2----2----|
--3--3--L---------------|--2--3--------------3--2--|--0----0--0--0----0----|


                                                  Guitar Solo

  E  E  E  E  Q    Q       E  E  Q    E  E  Q       E  E  E  E  E  E  Q     
--------------3----2----|-------------3--3--L----|-------------------------|
--------------3----3----|-------------3--3--L----|--3--3--L----------------|
--9--9--9--0--0----2----|--2--2--L----0--0--L----|--2--2--L--2--L--2--2----|
--9--9--9--0--0----0----|--2--2--L----0--0--L----|--0--0--L--2--L--2--2----|
--7--7--7----------0----|--0--0--L---------------|--0--0--L--0--L--0--0----|
--------------3---------|-------------3--3--L----|-------------------------|


  E  E  Q    E  E  Q       E  E  E  E  E  E  E  E     E  E  Q    E  E  Q     
--3--3--L---------------|--------------------------|-------------3--3--L----|
--3--3--L----3--3--L----|--3--3--L-----------------|-------------3--3--L----|
--0--0--L----2--2--L----|--2--0--L--2--L--2--2-----|--2--2--L----0--0--L----|
--0--0--L----0--0--L----|--0--0--L--2--L--2--2-----|--2--2--L----0--0--L----|
-------------0--0--L----|-----------0--L--0--0-----|--0--0--L---------------|
--3--3--L---------------|--2--3--L--------------3--|-------------3--3--L----|


  E  E  E  E  E  E  E  E     E  E  Q    E  E  Q       E  E  E  E  E  E  E  E   
--------------------------|--3--3--L---------------|--------------------------|
--3--3--L-----------------|--3--3--L----3--3--L----|--3--3--L-----------------|
--2--2--L--2--L--2--2--2--|--0--0--L----2--2--L----|--2--0--L--2--L--2--------|
--0--0--L--2--L--2--2--2--|--0--0--L----0--0--L----|--0--0--L--2--L--2--------|
--0--0--L--0--L--0--0--0--|-------------0--0--L----|-----------0--L--0--------|
--------------------------|--3--3--L---------------|--2--3--L-----------3--2--|


                                                Chorus 3

  Q    Q    Q    Q       E  E  E  E  Q    Q       E  E  Q    E  E  Q       E  E  E  E  H         
----------------------|--------------3----2----|-------------3--3--L----|-----------------------|
----------------------|--------------3----3----|-------------3--3--L----|-----------------------|
----------------------|--9--9--9--0--0----2----|--2--2--L----0--0--L----|--2--2--L--2--L--------|
----------------------|--9--9--9--0--0----0----|--2--2--L----0--0--L----|--0--0--L--2--L--------|
--2----2----2----2----|--7--7--7----------0----|--0--0--L---------------|--0--0--L--0--L--------|
--0----0----0----0----|--------------3---------|-------------3--3--L----|-----------------------|


  E  E  Q    E  E  Q       E  E  E  E  E  E  E  E     E  E  Q    E  E  Q     
--3--3--L---------------|--------------------------|-------------3--3--L----|
--3--3--L----3--3--L----|--3--3--------------------|-------------3--3--L----|
--0--0--L----2--2--L----|--2--0-----2--L--2--2-----|--2--2--L----0--0--L----|
--0--0--L----0--0--L----|--0--0-----2--L--2--2-----|--2--2--L----0--0--L----|
-------------0--0--L----|-----------0--L--0--0-----|--0--0--L---------------|
--3--3--L---------------|--2--3-----------------3--|-------------3--3--L----|


  E  E  E  E  H           E  E  Q    E  E  Q       E  E  E  E  E  E  Q       Q    Q    Q    Q     
-----------------------|--3--3--L---------------|-------------------------|----------------------|
-----------------------|--3--3--L----3--3--L----|--3--3-------------------|----------------------|
--2--2--L--2--L--------|--0--0--L----2--2--L----|--2--2-----2--L--2--2----|----------------------|
--0--0--L--2--L--------|--0--0--L----0--0--L----|--0--0-----2--L--2--2----|--5----5----5----5----|
--0--0--L--0--L--------|-------------0--0--L----|-----------0--L--0--0----|--3----3----3----3----|
-----------------------|--3--3--L---------------|--2--3-------------------|----------------------|


  Q    E  E  E  E  E  E     E  E  E  E  E  E  E  E     E  E  E   E   Q     Q      
-------------------------|--------------------------|----------------------------|
-------------------------|--------------------------|----------------------------|
-------------------------|--------------------------|----------------------------|
--5----5--5-----7-----7--|--7--7--7--7--7--7--7--7--|-----9-----12---L----12\----|
--3----3--3-----4-----5--|--5--5--5--5--5--5--5--5--|-----7-----10---L----10\----|
-------------------------|--------------------------|----------------------------|


  W                   W                   Q    Q    H           E  E  E  E  E  E  E  E   
-------------------|-------------------|---------------------|--------------------------|
-------------------|-------------------|---------------------|--3--3--------------------|
-------------------|-------------------|---------------------|--2--0-----2--L--2--2-----|
--2----------------|--L----------------|--2------------------|--0--0-----2--L--2--2-----|
--0----------------|--L----------------|--0------------------|-----------0--L--0--0-----|
-------------------|-------------------|---------------------|--2--3-----------------3--|


Outro

  E  E  Q    E  E  Q       E  E  E  E  H           E  E  Q    E  E  Q     
-------------3--3--L----|-----------------------|--3--3--L---------------|
-------------3--3--L----|-----------------------|--3--3--L----3--3--L----|
--2--2--L----0--0--L----|--2--2--L--2--L--------|--0--0--L----2--2--L----|
--2--2--L----0--0--L----|--0--0--L--2--L--------|--0--0--L----0--0--L----|
--0--0--L---------------|--0--0--L--0--L--------|-------------0--0--L----|
-------------3--3--L----|-----------------------|--3--3--L---------------|


  E  E  E  E  E  E  E  E     E  E  Q    E  E  Q       E  E  E  E  Q    Q       Q    Q    Q    Q     
--------------------------|-------------3--3--3----|------------------------|--3----3--------------|
--3--3--------------------|-------------3--3--3----|------------------------|--3----3----3----3----|
--2--0-----2--L--2--2-----|--2--2--2----0--0--0----|--2--2--L--2--L----2----|--0----0----2----2----|
--0--0-----2--L--2--2-----|--2--2--2----0--0--0----|--0--0--L--2--L----2----|--0----0----0----0----|
-----------0--L--0--0-----|--0--0--0---------------|--0--0--L--0--L----0----|----------------------|
--2--3-----------------3--|-------------3--3--3----|------------------------|--3----3--------------|


  E  E  E  E  H           W                   W                   E  S S Q    H          
-----------------------|-------------------|-------------------|-----------------------||
-----------------------|-------------------|-------------------|-----------------------||
-----------2--L--------|--L----------------|--L----------------|--L--2-2-2-------------||
-----------2--L--------|--L----------------|--L----------------|--L--2-2-2-------------||
-----------0--L--------|--L----------------|--L----------------|--L--0-0-0-------------||
--2--3--2--------------|-------------------|-------------------|-----------------------||



Guitar - lead

m.65

  W                   W                   E   S S S  S S  S E   E  S  S S  S  
-------------------|-------------------|--------5----------------------------|
-------------------|-------------------|------5---8p-5----5-----5--8p-5----5-|
-------------------|-------------------|--7b-----------7b---7b----------7b---|
-------------------|-------------------|-------------------------------------|
-------------------|-------------------|-------------------------------------|
-------------------|-------------------|-------------------------------------|


  E   E  S  S E   Q     E    E       E    S  S  E   S  S  Q       S     S  S  S  
---------------------------------|----------17--L-------------------------------|
------5--8p-5-8b--L~----8pb--L/--|-------17--------17-20-20b~----20pbr--L-17-17-|
--7b-----------------------------|--19b-----------------------------------------|
---------------------------------|----------------------------------------------|
---------------------------------|----------------------------------------------|
---------------------------------|----------------------------------------------|


                 PM PM                                                                            
   S   S  S   S  S  S  E   E   S   S  Q         E    S  S  S   S  S   S  E    S  S  S   S  S   S  
--------------------------------------------|----------17-----------------------17---------------|
----------------------17---L----------------|-------17----20p-17-----17------17----20p-17-----17-|
--19p-17--------------17---L----------------|--19b---------------19b----19b---------------19b----|
---------19p-17---------------19p-17-19\----|----------------------------------------------------|
----------------19-19-----------------------|----------------------------------------------------|
--------------------------------------------|----------------------------------------------------|


   S   S  S   S  S  S  E    Q       Q        S  S  S  S E  E  S  S  S  S  S  S  S  S  
----------------------17----L-------------|------------------------------------------|
--20p-17-----17-----x-20b---Lpb-----------|------------------------------------------|
---------19b-----x------------------------|------------------------------------------|
------------------------------------------|------------------------------------------|
------------------------------------------|--7p-5h-7p-5-7--7--5p-4h-5p-4h-5p-4h-5p-4-|
-----------------------------------15\----|------------------------------------------|


  E  E  E  E   E  E  E  E     Q    E   E    E   E   E   E      E    S  S  S  S  S   S  H           
---------------------------|-------------------------------|----------12--------------------------|
---------------------------|-------------------------------|-------12----15-12-----12-15b~--------|
---------------------------|-------------------12------12--|--14b--------------14b----------------|
---------------------------|-------------------12--14------|--------------------------------------|
--5------------------------|----------14~---L--------------|--------------------------------------|
-----3--4--5~--L--5--3--2--|-------------------------------|--------------------------------------|



m.92

  H        E  S S  E    S  S     E    S  S  E   E   E  E  Q        E   E   E    E    Q      Q     
-----------------------------|----------------------------------|--------------------------------|
-----------------------10-10-|--10---10-10-10-------8--8--8~----|--7---7---8---10----L~----10----|
--------------x-x------------|--12b------------10b--------------|--9b-----10b--12b---L~----------|
--------------x-x------------|----------------------------------|--------------------------------|
-----------------------------|----------------------------------|--------------------------------|
------------------12\--------|----------------------------------|--------------------------------|


   Q     E  E   Q     E     E     E   E   E  E  E  S  S E   S  S  
-------------------------------|---------------------------17-17-|
---8-----8------7~----L--------|--7b--7b--5----------------------|
--10b-------9b--------9pbr--5--|--7b--7b--5----------------------|
-------------------------------|-------------7--L--7p-5-7--------|
-------------------------------|---------------------------------|
-------------------------------|---------------------------------|


   Q       E   S  S  Q       E   S  S     E     S  S  E    E     Q      E  S S  
----------17--15-15---------15--14-14-|--------14-14-------------------17------|
--20b~--------------18b~--------------|--17b~--------18b--20b~---L~------------|
--------------------------------------|------------------------------------0-0-|
--------------------------------------|------------------------------------0-0-|
--------------------------------------|----------------------------------------|
--------------------------------------|----------------------------------------|


   Q      E     E   Q      E   S  S    E   E    E  E  E  E  E  E     E  E  E    E  H         
--15------L----14--14-----14\-------|-----------------------------|-------------------------|
--18b-----Lpb------17b----17\-------|--7b--7br--5-----------------|-------------------------|
-------------------------------5h-7-|--7b--7br--5-----------------|-------------------------|
------------------------------------|--------------7--L--7--5-----|-------------------------|
------------------------------------|--------------------------7--|--6--5--3br--0--L--------|
------------------------------------|-----------------------------|-------------------------|


  W                   H        H          
-------------------|--------------------||
-------------------|--------------------||
-------------------|--------------------||
-------------------|--------------------||
--L----------------|--L-----------------||
-------------------|--------------------||




Duration Legend
---------------
W - whole
H - half
Q - quarter
E - 8th
S - 16th
T - 32nd
X - 64th
. - note dotted
|-n-|  - n-tuplets


Tablature Legend
----------------
L - tied note
x - dead note
g - grace note
(n) - ghost note
> - accentuded note
NH - natural harmonic
AH - artificial harmonic
TH - tapped harmonic
SH - semi harmonic
PH - pitch harmonic
h - hammer on
p - pull off
b - bend
br - bendRelease
pb - preBend
pbr - preBendRelease
brb - bendReleaseBend
\n/ - tremolo bar dip
\n - tremolo bar dive
-/n - tremolo bar Release up
/n\ - tremolo bar inverted dip
/n - tremolo bar return
-\n - tremolo bar Release down
S - shift slide
s - legato slide
/ -  slide into from below or out of upwards
\ -  slide into from above or out of downwards
~ - vibrato
W - wide vibrato
tr - trill
TP - tremolo picking
T - tapping
S - slap
P - pop
< - fade in
^ - brush up
v - brush down
Tap to rate this tab
 
# A B C D E F G H I J K L M N O P Q R S T U V W X Y Z