Song name
# A B C D E F G H I J K L M N O P Q R S T U V W X Y Z

Akercocke - Scapegoat tab

PM = palm mute
P  = pull off
/  = slide

riff 1:
|----------------------------|
|----------------------------|
|----------------------------|
|-9-----3----5----3----5--3--|
|-9-----3----4----3----4--3--|
|-9-----3----4----3----4--3--|

riff 2:
|------------------------------|
|------------------------------|
|------------------------------|
|------------------------------|
|------------------------------|
|-9-----3----4----3----4---3---|
 |______tremolo picking______|

riff 3:
|---------------------------------------------------------------------------------|
|---------------------------------------------------------------------------------|
|---------------------------------------------------------------------------------|
|---------------------------------------------------------------------------------|
|-5---------5/6---------5---------5/6---------5---------5/6-------3-3-3-3-3-3-3-3-|
|-5---0-0---5/6---0-0---5---0-0---5/6---0-0---5---0-0---5/6---0-0-3-3-3-3-3-3-3-3-|
     |_PM_|      |_PM_|    |_PM_|      |_PM_|    |_PM_|      |_________PM________|

riff 4:
|-----------------------------|
|-----------------------------|
|-----------------------------|
|-0-0-0-0---0-0-0-0---0-0-0---|
|-0-0-0-0---0-0-0-0---0-0-0---|
|-0-0-0-0---0-0-0-0---0-0-0---|
 |___PM___||___PM___||__PM__|

riff 5
part 1:
|---------------------------------|
|---------------------------------|
|---------------------------------|
|---------------------------------|
|---------5---3-----------5---3---|
|-3---5-----------3---5-----------|

part 2:
|-----------------------------------------------------------------------|
|-----------------------------------------------------------------------|
|-----------------------------------------------------------------------|
|-----------------------------------------------------------------------|
|-----------------------------------------------------------------------|
|-2-1-2-1-2-3-2-0-2-1-2-1-2-3-2-0-2-1-2-1-2-3-2-0-2-3-5-5-5-3-3-3-4-4-4-|
 |__________________________tremolo picking____________________________|

outro:
|-----------------|
|-----------------|
|-----------------|
|-----------------|
|-0---0---0---0---|
|-0---0---0---0---|
 |______PM______|

Tap to rate this tab
 
# A B C D E F G H I J K L M N O P Q R S T U V W X Y Z