Song name
# A B C D E F G H I J K L M N O P Q R S T U V W X Y Z

Akon - Right Now tab

Help us improve GuitareTab! Take a short survey!
-------------------------------------------------------------------------------
	Right Now (Na Na Na) Intro - Akon
-------------------------------------------------------------------------------
Tabbed by: jread1
Email: jread925@gmail.com

Tuning: Standard
   G#m           F#
e|--4------------2-------------------------------------------------------------|
B|--4------------2-------------11-12-11----------------------------------------|
G|--4------------3----------------------11-13----13-11----11-------------------|
D|--6------------4-------------------------------------------9----11-13----11--|
A|--6------------4-------------------------------------------------------------|
E|--4------------2-------------------------------------------------------------|


| /  slide up
| \  slide down
| h  hammer-on
| p  pull-off
| ~  vibrato
| +  harmonic
| x  Mute note
===============================================================================
Related for Right Now tab