Song name
# A B C D E F G H I J K L M N O P Q R S T U V W X Y Z

Aladdin - One Jump Ahead And Reprise tab

Hey every one i'm absolutely in love with this song so i've learnt it by ear and tabbed 
it out for everyone to enjoy, hope you like it. Cheers, Shalon :)


E|--------12s10-10-----10-8~-------12-10-13-12------------------|
B|-10s8-8---------10-8--------10-8------------------------------|
G|--------------------------------------------------------------|
D|--------------------------------------------------------------|
A|--------------------------------------------------------------|
E|--------------------------------------------------------------|


E|-12-10-13-12-10-8-7-8----------------------10-----------------|
B|----------------------10--10-12-13--13--13----10---12---13~---|
G|--------------------------------------------------------------|
D|--------------------------------------------------------------|
A|--------------------------------------------------------------|
E|--------------------------------------------------------------|
Tap to rate this tab
# A B C D E F G H I J K L M N O P Q R S T U V W X Y Z