Song name
# A B C D E F G H I J K L M N O P Q R S T U V W X Y Z

Alamid - Georgia tab

 
 
 Song title:"Georgia"
 Artist:
 Tabbed by:
 
 Intro:D-AM7-C#m (3x)
       D-AM7
 
 Verse 1:
  D              AM7-C#m-D          AM7-C#m
  Nagmamaneho sa kalye at doon ko nakita
  D              AM7-C#m     G#m         C#
  Isang magandang dalaga sa kanto ng Buendia
  D            E              C#m         F#m
 'Di malimutan ang mukha niya kagandahang sobra-sobra
  D                E        C#m         F#m
  Ngiti n'yay mala Monalisa,inisip ko baka siya na nga
 Verse 2:
  D               AM7-C#m-D               AM7-C#m
  Ibinaba ko'ng bintana pumara sa kanyang harapan
  D               AM7-C#m             G#m           C#
 'Di na'ko nag-isip nung sabihin kong miss sakay ka na
  D                  E                C#m             F#m
  Ako'y nagulat nung siya'y pumayag , puso ko'y biglang naglulundag 
  D              E          C#m                F#m
 'Di ko alam ang aking gagawin ako yata'y maloloko na 
 Chorus:
  D    E       A2              D   E     A2
  Miss ikaw na ba ang babae ng panaginip ko?
  D    E       A2                   D      E     A2
  Miss ikaw nga ba ang kasama ko sa habang buhay ko?
 Adlib:
   D-E-A2 (4X)
 Verse 3:
  D              AM7-C#m-D                AM7-C#m
  Nahihiya pa akong tumingin sa magandang dalaga
  D                   AM7-C#m          G#m           C#
  Itinanong ko ang kanyang pangalan at sumagot siya "Georgia"
  D                  E             C#m               F#m
  Ako'y nabuwisit sa aking narinig boses niya'y napakababa ng tinig
  D               E                    C#m        F#m
  Pinababa ko si "Georgia" ng kotse at paspasan akong umalis
 Chorus:
  D    E     A2                D   E     A2
  Hindi pala siya ang babae ng panaginip ko
  D    E     A2                    D       E    A2
  Hindi pala siya siya'y lalake sa loob ng bestida
  D      E      A2                  D    E     A2
  Kaya't kayong lahat mag-iingat sa nakikita n'yo
  D      E     A2                 D        E        A2 
 'Wag basta-basta baka maloko rin kayo ng isang "Georgia"
  D            A-AM7    D            A-AM7
  Pangalan ay "Georgia" maganda si "Georgia"
  D                     A-AM7   D-E-A2
  Ngunit mag-ingat kay "Georgia"
 
  (pagkatapos ng unang chorus iplay nyo to sa adlib)
 
  (solo part)
 
  e--------------------------|--------------------------|------------------|
  b------10-10------9-10-9---|-----------10h12-------10-|-10------10-12-14-|
  g-9/11-------9-11--------9-|------9h11-------11h13----|----9-11----------|
  d--------------------------|-9h11---------------------|------------------|
  a--------------------------|--------------------------|------------------|
  e--------------------------|--------------------------|------------------|
 
  e---------------------------------------|--------------------------------|
  b-17-/14--/14-10h12-10-10------9-10-9---|------10h12-14-------10-10------|
  g-------------------------9-11--------9-|-9h11----------11h13-------11---|
  d---------------------------------------|--------------------------------|
  a---------------------------------------|--------------------------------|
  e---------------------------------------|--------------------------------|
  
  e---------|-----------------10h12-/17------------------------------------|
  b---------|-----------10h12----------------------------------------------|
  g-9-7-6---|------9h11----------------------------------------------------|
  d-------7-|-9h11---------------------------------------------------------|
  a---------|--------------------------------------------------------------|
  e---------|--------------------------------------------------------------|
  
  (Riffle)

  e----------------------|-------------14-----|-------17h19-21-/17---------|
  b------10-12-12/14-/10-|-------14h17----/17-|-17h19----------------------|
  g----9-----------------|-14h16--------------|----------------------------|
  d-11-------------------|--------------------|----------------------------|
  a----------------------|--------------------|----------------------------|
  e----------------------|--------------------|----------------------------|
  
  e------------------------------------------------------------------------|
  b------10-14-17-14/12-10------14-17-/19-17-14-/12------10-12-14----------|
  g-9/11-------------------11-9---------------------9h11-------------------|
  d------------------------------------------------------------------------|
  a------------------------------------------------------------------------|
  e------------------------------------------------------------------------|
  
  e---------------/19-17---|
  b------10-12-14----------|
  g-9h11-------------------|
  d------------------------|
  a------------------------|
  e------------------------|
  mga riffle to sa last part ng song sunod sunod na yan

 
Tap to rate this tab
# A B C D E F G H I J K L M N O P Q R S T U V W X Y Z