Song name
# A B C D E F G H I J K L M N O P Q R S T U V W X Y Z

Aldo Nova - Fantasy tab

   Aldo Nova
   Fantasy
   Tabbed by Majorpain1023

   The other tab is O.K. but I feel this one is much better.
   I put the difficulty at "imtermidate" due to the solo

   Key:
   \ = Slide down
   fb= Full Bend
   h = Hammer On
   p = Pull Off
   ~ = Let Ring
   


   (1:05)
  e|-----------------------------------|
  B|-----------------------------------|
  G|------------5-----------------5-5--|
  D|--55-8\---5-5-8---55-8\---3-3-5-5--| X3
  A|--55-8\---5-3-8---55-8\---3-3-3-3--|
  E|--33-6\---3---6---33-6\---1-1------|
    
   (1:20)
  e|--18--17--15--13------------------|
  B|------------------15--13--11--10--|
  G|----------------------------------|
  D|----------------------------------| X2
  A|----------------------------------|
  E|----------------------------------|
    
   (1:34)
  e|------------------------------------------------------------|
  B|------------------------------------------------------------|
  G|--------3------------5--5----------3------------------5--5--|
  D|--5--5--3------3--3--5--5---5--5---3------------3--3--5--5--| X4
  A|--5--5--1------3--3--3--3---5--5---1------------3--3--3--3--|
  E|--3--3---------1--1---------3--3----------------1--1--------|
    City nights, summer breeze makes you feel alright. 

   (2:04)
  e|--18--17--15--13------------------|
  B|------------------15--13--11--10--|
  G|----------------------------------|
  D|----------------------------------| X2
  A|----------------------------------|
  E|----------------------------------|

   (2:18)
  e|-----------------------------------------------------------------|
  B|-----------------------------------------------------------------|
  G|--------3-------------5--5-----------3---------------------5--5--|
  D|--5--5--3------3--3---5--5----5--5---3---------------3--3--5--5--| X4
  A|--5--5--1------3--3---3--3----5--5---1---------------3--3--3--3--|
  E|--3--3---------1--1-----------3--3-------------------1--1--------|
    Out of sight, by your kicks from the man in the white

   (2:47)
  e|---------------------------------------------------------------|
  B|---------------------------------------------------------------|
  G|-8--------------------7---8-------------7----------------------|
  D|-8--------------------7---8-------------7----------------------|
  A|-6--------------------5---6-------------5----------------------|
  E|---------------------------------------------------------------|
     Forget all that you see, it's not reality. It's just a fantasy. 

   (2:55)
  e|----------------------------------------------------------------|
  B|----------------------------------------------------------------|
  G|--------3-------------5--5----------3---------------------5--5--|
  D|--5--5--3-------3--3--5--5---5--5---3---------------3--3--5--5--| X4
  A|--5--5--1-------3--3--3--3---5--5---1---------------3--3--3--3--|
  E|--3--3----------1--1---------3--3-------------------1--1--------|
    Can't you see, what this crazy life is doing to me

   
   Solo (3:17)
  e|--------15-------15-------15-------15-------15-18fb-15h18p15------18fb--|
  B|--18fb-----18fb-----18fb-----18fb-----18fb------------------18p15-------|
  G|------------------------------------------------------------------------|
  D|------------------------------------------------------------------------|
  A|------------------------------------------------------------------------|
  E|------------------------------------------------------------------------|
  
   (3:24)
  e|-------3----------3----------3----------3----------3--------------------|
  B|---------6p3--------6p3--------6p3--------6p3--------6p3----------------|
  G|--5fb--------5fb--------5fb--------5fb--------5fb--------5fb-5-7p5-5fb--|
  D|------------------------------------------------------------------------|
  A|------------------------------------------------------------------------|
  E|------------------------------------------------------------------------|

   (3:32)
  e|---------------------------------------------------------------------3--|
  B|------------------------------------------------------------3-----------|
  G|--3p0---------3p0---------3p0---------3p0-5p0---------5b7-5---5b7-5-----|
  D|------5p0-3p0-----5p0-3p0-----5p0-3p0---------5p0-3p0-------------------|
  A|------------------------------------------------------------------------|
  E|------------------------------------------------------------------------|

   (3:39)
  e|--13fbp10-13fbp10-13fbp10-13h15p13-13fb~~--|
  B|-------------------------------------------|
  G|-------------------------------------------|** The Full Bends 
  D|-------------------------------------------|   are quickly released
  A|-------------------------------------------|   then do the pull off
  E|-------------------------------------------|

   (3:42)
  e|--15-18-18fbp15-18fbp15-18fbp15-18h20p18-18fb~~-20-18-16~~--|
  B|------------------------------------------------------------|
  G|------------------------------------------------------------|
  D|------------------------------------------------------------|
  A|------------------------------------------------------------|
  E|------------------------------------------------------------|

   (3:46)
  e|-----------------------------------------------------------------|
  B|-----------------------------------------------------------------|
  G|--8---------------------7---8-------------7----------------------|
  D|--8---------------------7---8-------------7----------------------|
  A|--6---------------------5---6-------------5----------------------|
  E|-----------------------------------------------------------------|
    Said forget all that you see, it's not reality. It's just a fantasy. 
 
  (3:54)
  e|------------------------------------------------------------|
  B|------------------------------------------------------------|
  G|--------3------------5--5----------3------------------5--5--|
  D|--5--5--3------3--3--5--5---5--5---3------------3--3--5--5--| X4
  A|--5--5--1------3--3--3--3---5--5---1------------3--3--3--3--|
  E|--3--3---------1--1---------3--3----------------1--1--------|
    Can't you see,  what this crazy life is doing to me

   (4:30)
  e|--18--17--15--13------------------|
  B|------------------15--13--11--10--|
  G|----------------------------------|
  D|----------------------------------| X4
  A|----------------------------------|
  E|----------------------------------|



Tap to rate this tab
 
# A B C D E F G H I J K L M N O P Q R S T U V W X Y Z