Guitaretab - guitar tabs
Song name
# A B C D E F G H I J K L M N O P Q R S T U V W X Y Z

Alejandro Escovedo - Last To Know tab

Artist: Bullet For My Valentine
Song: Last To Know
Album: Scream Aim Fire


Tabbed by:marco66666
Email: marco66666@gmail.com

Tuning:CGCFAD(Guitar Dropped C Tunning)

Enjoy!!!

Intro (guitar 1):

D|--------------------------------------------------------------|
A|--------------------------------------------------------------|
F|------------------------9p10p9----9---------------------------|
C|-5p7p5---5---------------------12---12--10-9-7----2-4--5--7--|
G|-------9----9-7-5-7-------------------------------------------|
C|--------------------------------------------------------------|

Guitar 2:

D|-----------------------------------------------------------------------|
A|-----------------------------------------------------------------------|
F|-----------------------------------------------------------------------|
C|-9p10p9----9-----------------11p12p11----12-------------5--7--9--10----|
G|--------12----12-10-9-10--------------14----14-12-10-------------------|
C|-----------------------------------------------------------------------|

Verse (guitar 1):

D|--------------------------------------------------------------------|
A|--------------------------------------------------------------------|
F|--------------------------------------------------------7-77777777--|
C|-2-22222222-------------------2-22222222----------------7-77777777--|
G|-2-22222222--2-3-2-0-2-0------2-22222222--2-3-2-0-2-0---5-55555555--|
C|-2-22222222--------------5-4--2-22222222--------------5-------------|

D|-------------------------------------|
A|-------------------------------------|
F|-7-55555555--------------------------|
C|-7-55555555----5p7p5---5-------------|
G|-5-33333333----------9---9--7-5-7----|
C|-------------------------------------|

Guitar 2:

D|--------------------------------------------------------------------|
A|--------------------------------------------------------------------|
F|--------------------------------------------------------7-77777777--|
C|-2-22222222-------------------2-22222222----------------7-77777777--|
G|-2-22222222--2-3-2-0-2-0------2-22222222--2-3-2-0-2-0---5-55555555--|
C|-2-22222222--------------5-4--2-22222222--------------5-------------|

D|---------------------------------------|
A|---------------------------------------|
F|-7-55555555----------------------------|
C|-7-55555555----9p10p9----9-------------|
G|-5-33333333-----------12---12--10-9-7--|
C|---------------------------------------|
Pre Chorus:


D|-------------------------------------------------------------------|
A|-------------------------------------------------------------------|
F|-7s99-99-9999----7s99-99-9999----7s99-99-9999----------------------|
C|-7s99-99-9999----7s99-99-9999----7s99-99-9999-----4-5-4-----4-5-4--|
G|-5s77-77-7777----5s77-77-7777----5s77-77-7777---3--------5---------|
C|-------------------------------------------------------------------|

Chorus:

D|-------------------------------------------------------------------|
A|-----------------------------------------------8-7------10-8-7-----|
F|-7-999-999-999-999-999--7-999-999-999-999-999------7-----------7---|
C|-7-999-999-999-999-999--7-999-999-999-999-999--------9-------------|
G|-5-777-777-777-777-777--5-777-777-777-777-777----------------------|
C|-------------------------------------------------------------------|
[ Tab from: http://www.guitaretab.com/a/alejandro-escovedo/124785.html ]
D|----------------------------------------|
A|----------------------------------------|
F|-7-999-999-999-999-999---5--9--7--12----|
C|-7-999-999-999-999-999---5--9--7--12----|
G|-5-777-777-777-777-777--3--7--5--10----|
C|----------------------------------------|


Break (guitar 1):

D|---------------------------------------------|
A|---------------------------------------------|
F|---------------------------------------------|
C|-5---5-5-4-----4-4-5------5-5-4-----4-4-5----|
G|-3-3-------3-3-------3-3b-------3-3----------|
C|---------------------------------------------|

D|---------------------------------------------------|
A|---------------------------------------------------|
F|-------4-4-2-----2-2--------4-4-2----4-4-5---------|
C|-0-2-----------------5--2-2-----------------0-5----|
G|-0-2--------------------2-2-----------------0-3----|
C|-0-2-2-------2-2--------2-2-------2-2--------------|

Guitar 2:
D|-------------------------------------------------|
A|-------------------------------------------------|
F|-------------------------------------------------|
C|-5-----------------------------------------------|
G|-3-3-7-7-5--3-3--5-5-7--3-3b--7-7-5--3-3--5-5-7--|
C|-------------------------------------------------|

D|---------------------------------------------------|
A|-------------------------------------------5b------|
F|-------5-5-4-----4-4-2-------5-5-4----4-4----------|
C|-0-2--------------------2-2------------------------|
G|-0-2--------------------2-2------------------------|
C|-0-2-2-------2-2--------2-2-------2-2--------------|

Solo:
D|------------15-14----14-------------------15-14----------14-17b-17-|
A|-17-15b-17b-------15----15-10-------------------15----15-----------|
F|------------------------------12----9-11-----------14--------------|
C|-------------------------------------------------------------------|
G|-------------------------------------------------------------------|
C|-------------------------------------------------------------------|

D|-14-22b-22-20-19-15-19-15-14-12b---17-19-20-17----20-19-17---|
A|-----------------------------------------------20------------|
F|-------------------------------------------------------------|
C|-------------------------------------------------------------|
G|-------------------------------------------------------------|
C|-------------------------------------------------------------|

D|-17-19-20-17----20-19-17---15-17-19-15----19-17-15------|
A|-------------20------------------------19---------------|
F|--------------------------------------------------------|
C|--------------------------------------------------------|
G|--------------------------------------------------------|
C|--------------------------------------------------------|

D|-15-17-19-15----19-17-15---14-15-17-14----17-15-14------|
A|----------------19------------------------17------------|
F|--------------------------------------------------------|
C|--------------------------------------------------------|
G|--------------------------------------------------------|
C|--------------------------------------------------------|

D|-14-15-17-14----17-15-14-------20-19-17----17-------22b--|
A|-------------17-------------------------20----20-19------|
F|---------------------------------------------------------|
C|---------------------------------------------------------|
G|---------------------------------------------------------|
C|---------------------------------------------------------|

Any comments or corrections at marco66666@gmail.com
Related for Last To Know tab