Song name
# A B C D E F G H I J K L M N O P Q R S T U V W X Y Z

Alejandro Escovedo - Castenets tab

Highlighted       Show chord diagrams
AGD

MAIN RIFF x 2

A
She plays castanets, she works without a net

               G                       D       A
I like her better when she walks away

A
She said she was mine, she told me twice

               G                       D       A
I like her better when she walks away



Chorus:
                        G                       D        A
Yeah, I like her better when she walks away
               G                      D        A
I like her better when she never stays
              G                       D                A
I like her better when she danced my way
               G                      D        A
I like her better when she walks away

MAIN RIFF x 2

I love the sun when it silouhettes
I like her better when she walks away
I love her hair fallin’ across my face
I like her better when she walks away

CHORUS

MAIN RIFF x 2

SOLO

She plays castanets, she works without a net
I like her better when she walks away
She turns me on like a pick up truck
I like her better when she walks away

I love the sun shinin’ through her dress
I like her better when she walks away
I like her hair in a tangled mess
I like her better when she walks away

CHORUS

MAIN RIFF
SOLO TO END


MAIN RIFF (ala Chuck Berry & with mojo)

This isn’t perfect, but it should give you the idea.

e----/--5-5-5---/--5-5-5-----/--5-5--------7-(8)--7---5-------------
-----/--5-5-5---/--5-5-5-----/--5-5--------7-(8)--7---5~~~~~
--------------------------------------------------------------



e-------------------------------------------------------------
-----------------------------------------------------------2--
-------4--2--2------4--2--2------4--2----4--2----2--------2---
-------2--2--4------2--2--4------2--2----2--2----4--------2--
------------------------------------------------------------0
Tap to rate this tab
# A B C D E F G H I J K L M N O P Q R S T U V W X Y Z