Song name
# A B C D E F G H I J K L M N O P Q R S T U V W X Y Z

Alesana - Early Morning tab

artist: alesana
album: on frail wings of vanity and wax
song: early mourning

tuning: standard
key: G


 -------------------------
|          INTRO          |
 -------------------------


    G
e|----------------------------------------|
B|----------------------------------------|
G|--------0--------0--------0--------0----|
D|------0--------0--------0--------0------|
A|----2--------2--------2--------2--------|
E|--3--------3--------3--------3----------|


    Em
e|----------------------------------------|
B|----------------------------------------|
G|--------0--------0--------0--------0----|
D|------2--------2--------2--------2------|
A|----2--------2--------2--------2--------|
E|--0--------0--------0--------0----------|


    D
e|--------0--------2--------3------2-0----|
B|------3--------3--------3---------------|
G|----2--------2--------2--------2--------|
D|--0--------0--------0--------0----------|
A|----------------------------------------|
E|----------------------------------------|


    C
e|--------0---------0--------0-------0----|
B|------1---------1--------1-------1------|
G|----0---------0--------0-------0--------|
D|----------------------------------------|
A|--3---------3--------3-------3----------|
E|----------------------------------------|


 -------------------------
|          VERSE          |
 -------------------------


    G
e|----------------------------------------|
B|----------------------------------------|
G|--------0--------0--------0--------0----|
D|------0--------0--------0--------0------|
A|----2--------2--------2--------2--------|
E|--3--------3--------3--------3----------|
                        "last night i forgot..."

    Em
e|----------------------------------------|
B|----------------------------------------|
G|--------0--------0--------0--------0----|
D|------2--------2--------2--------2------|
A|----2--------2--------2--------2--------|
E|--0--------0--------0--------0----------|
                      " ...how the sound of ..."

    D
e|--------0--------2--------3------2-0----|
B|------3--------3--------3---------------|
G|----2--------2--------2--------2--------|
D|--0--------0--------0--------0----------|
A|----------------------------------------|
E|----------------------------------------|
     "...your voice whispered..."

    C
e|--------0---------0--------0-------0----|
B|------1---------1--------1-------1------|
G|----0---------0--------0-------0--------|
D|----------------------------------------|
A|--3---------3--------3-------3----------|
E|----------------------------------------|
      "...sweet..."

   G
e|----------------------------------------|
B|----------------------------------------|
G|--------0--------0--------0--------0----|
D|------0--------0--------0--------0------|
A|----2--------2--------2--------2--------|
E|--3--------3--------3--------3----------|
                      "good byes..."

   D
e|--------0--------2--------3------2-0----|
B|------3--------3--------3---------------|
G|----2--------2--------2--------2--------|
D|--0--------0--------0--------0----------|
A|----------------------------------------|
E|----------------------------------------|
                    "your eyes..."

    C
e|--------0---------0--------0-------0----|
B|------1---------1--------1-------1------|
G|----0---------0--------0-------0--------|
D|----------------------------------------|
A|--3---------3--------3-------3----------|
E|----------------------------------------|
                        "left to ..."

   Em
e|----------------------------------------|
B|----------------------------------------|
G|--------0--------0--------0--------0----|
D|------2--------2--------2--------2------|
A|----2--------2--------2--------2--------|
E|--0--------0--------0--------0----------|
            "die..."

 ---------------------------
|          REFRAIN          |
 ---------------------------

   G
e|----------------------------------------|
B|----------------------------------------|
G|--------0--------0--------0--------0----|
D|------0--------0--------0--------0------|
A|----2--------2--------2--------2--------|
E|--3--------3--------3--------3----------|
    " i'm alone ..."


   D
e|--------0--------2--------3------2-0----|
B|------3--------3--------3---------------|
G|----2--------2--------2--------2--------|
D|--0--------0--------0--------0----------|
A|----------------------------------------|
E|----------------------------------------|
                      "...too..."


   Em
e|----------------------------------------|
B|----------------------------------------|
G|--------0--------0--------0--------0----|
D|------2--------2--------2--------2------|
A|----2--------2--------2--------2--------|
E|--0--------0--------0--------0----------|
            "...understand ..."


    C
e|--------0---------0--------0---0~-------|
B|------1---------1--------1-----1~-------|
G|----0---------0--------0-------0--------|
D|-------------------------------2~-------|
A|--3---------3--------3---------3~-------|
E|----------------------------------------|
                       "why..."

 --------------------------
|          CHORUS          |
 --------------------------


   G                  Em
e|----------------------------------------|
B|----------------------------------------|
G|--------0--------0--------0--------0----|
D|------0--------0--------2--------2------|
A|----2--------2--------2--------2--------|
E|--3--------3--------0--------0----------|
  "  why    not     one more  night "


   G                  Em
e|----------------------------------------|
B|----------------------------------------|
G|--------0--------0--------0--------0----|
D|------0--------0--------2--------2------|
A|----2--------2--------2--------2--------|
E|--3--------3--------0--------0----------|
  "  one     last     kiss goodbye "


   D
e|--------0--------2--------3------2-0----|
B|------3--------3--------3---------------|
G|----2--------2--------2--------2--------|
D|--0--------0--------0--------0----------|
A|----------------------------------------|
E|----------------------------------------|
     " my       sweet   love to

    C
e|--------0---------0--------0-------0----|
B|------1---------1--------1-------1------|
G|----0---------0--------0-------0--------|
D|----------------------------------------|
A|--3---------3--------3-------3----------|
E|----------------------------------------|
     night..."


    G
e|----------------------------------------|
B|----------------------------------------|
G|--------0--------0--------0--------0----|
D|------0--------0--------0--------0------|
A|----2--------2--------2--------2--------|
E|--3--------3--------3--------3----------|
  " i    hope..."

    Em
e|----------------------------------------|
B|----------------------------------------|
G|--------0--------0--------0--------0----|
D|------2--------2--------2--------2------|
A|----2--------2--------2--------2--------|
E|--0--------0--------0--------0----------|
    " the stars..."

    D
e|--------0--------2--------3------2-0----|
B|------3--------3--------3---------------|
G|----2--------2--------2--------2--------|
D|--0--------0--------0--------0----------|
A|----------------------------------------|
E|----------------------------------------|
     "still spell...

    C
e|--------0---------0--------0-------0----|
B|------1---------1--------1-------1------|
G|----0---------0--------0-------0--------|
D|----------------------------------------|
A|--3---------3--------3-------3----------|
E|----------------------------------------|
      "out your name..."


    D                  C
e|--------2--------2--------0----0~-------|
B|------3--------3--------1------1~-------|
G|----2--------2--------0--------0~-------|
D|--0--------0-------------------2~-------|
A|--------------------3----------3~-------|
E|----------------------------------------|
          " from   where  you   are "


REPEAT VERSE
REPEAT REFRAIN
REPEAT CHORUS

 --------------------------
|          BRIDGE          |
 --------------------------


    D
e|--------2--------2--------2--------2----|
B|------3--------3--------3--------3------|
G|----2--------2--------2--------2--------|
D|--0--------0--------0--------0----------|
A|----------------------------------------|
E|----------------------------------------|


    Em
e|----------------------------------------|
B|----------------------------------------|
G|--------0--------0--------0--------0----|
D|------2--------2--------2--------2------|
A|----2--------2--------2--------2--------|
E|--0--------0--------0--------0----------|


    D
e|--------2--------2--------2--------2----|
B|------3--------3--------3--------3------|
G|----2--------2--------2--------2--------|
D|--0--------0--------0--------0----------|
A|----------------------------------------|
E|----------------------------------------|
        " i close my eyes and

    Em
e|----------------------------------------|
B|----------------------------------------|
G|--------0--------0--------0--------0----|
D|------2--------2--------2--------2------|
A|----2--------2--------2--------2--------|
E|--0--------0--------0--------0----------|
         " you ..."


    D
e|--------2--------2--------2--------2----|
B|------3--------3--------3--------3------|
G|----2--------2--------2--------2--------|
D|--0--------0--------0--------0----------|
A|----------------------------------------|
E|----------------------------------------|
        " are everything i

    Em
e|----------------------------------------|
B|----------------------------------------|
G|--------0--------0--------0--------0----|
D|------2--------2--------2--------2------|
A|----2--------2--------2--------2--------|
E|--0--------0--------0--------0----------|
     see    good..."


    C9
e|--------------------------------3~------|
B|---------3--------3--------3----3~------|
G|-------0--------0--------0------0~------|
D|-----2--------2--------2--------2~------|
A|---3--------3--------3----------3~------|
E|----------------------------------------|
     "...night..."


 -------------------------
|          OUTRO          |
 -------------------------


    Em
e|----------------------------------------|
B|----------------------------------------|
G|--------0--------0--------0--------0----|
D|------2--------2--------2--------2------|
A|----2--------2--------2--------2--------|
E|--0--------0--------0--------0----------|


    C9
e|----------------------------------------|
B|---------3--------3--------3--------3---|
G|-------0--------0--------0--------0-----|
D|-----2--------2--------2--------2-------|
A|---3--------3--------3--------3---------|
E|----------------------------------------|

    Em
e|----------------------------------------|
B|----------------------------------------|
G|--------0--------0--------0--------0----|
D|------2--------2--------2--------2------|
A|----2--------2--------2--------2--------|
E|--0--------0--------0--------0----------|


    C9
e|--------------------------------3~------|
B|---------3--------3--------3----3~------|
G|-------0--------0--------0------0~------|
D|-----2--------2--------2--------2~------|
A|---3--------3--------3----------3~------|
E|----------------------------------------|

______________________________________________________________________

 heyy guys!this song is originally in piano right?but this is the way
i play it in guitar...so that means,this might not sound exactly as in
the recording,but i'm pretty sure this would create an excellent sound
for this nice song! haha this is my own version,so i hope you'll have
fun playing this...oh,this song is dedicated to YOU !!! 22! haha :D
______________________________________________________________________

I LOVE YOU ! haha
SEE YA! \m/
Tap to rate this tab
# A B C D E F G H I J K L M N O P Q R S T U V W X Y Z