Alesana - The Artist tab

Alesana - The Artist

Their isnt a tab for Shawn's bits (Rhythym) on here
so i though i'd give it a go

Tuning Drop D (e,B,G,D,A,D)

* = Palm Mute
x = Mute
~ = Let Ring

Intro - Rest

Verse
e|-------------------------------------------------------REST-------|
B|-------------------------------------------------------REST-------|
G|-------------------------------------------------------REST-------|
D|-0-0-0-0-0-0-0-0-8-8-8-8-8-8-8-8-5-5-5-5-5-5-5-5-------REST-------|
A|-0-0-0-0-0-0-0-0-8-8-8-8-8-8-8-8-5-5-5-5-5-5-5-5-------REST-------| (x2)
D|-0-0-0-0-0-0-0-0-8-8-8-8-8-8-8-8-5-5-5-5-5-5-5-5-------REST-------|

e|-----REST---------------------------------------|
B|-----REST---------------------------------------|
G|-----REST---------------------------------------|
D|-----REST----------3-2---3-2---3-2---3-2---3-2--|
A|-----REST--------------3-----3-----3-----3------|
D|-----REST---------------------------------------|

e|------------------------------------------------|
B|------------------------------------------------|
G|------------------------------------------------|
D|-0~----3~----8~----3-2---3-2---3-2---3-2---3-2--|
A|-0~----3~----8~--------3-----3-----3-----3------|
D|-0~----3~----8~---------------------------------|
   ^     ^     ^
   Play These Soft

Pre Chorus (x2)
e|-----------------------------------------------|
B|-----------------------------------------------|
G|-----------------------------------------------|
D|-8-8-8-8x----8-8-8-8x----7-7-7-7x----7-7-7-7x--|
A|-8-8-8-8x----8-8-8-8x----7-7-7-7x----7-7-7-7x--|
D|-8-8-8-8x----8-8-8-8x----7-7-7-7x----7-7-7-7x--|

e|----------------------|
B|----------------------|
G|----------------------|
D|-0000-2222-3333-5555--|
A|-0000-2222-3333-5555--| (x2)
D|-0000-2222-3333-5555--|

Chorus (x2)
e|------------------------------------------|
B|------------------------------------------|
G|------------------------------------------|
D|-8-8-8-8-8-8-8-8-10-10-10-10-10-10-10-10--|
A|-8-8-8-8-8-8-8-8-10-10-10-10-10-10-10-10--|
D|-8-8-8-8-8-8-8-8-10-10-10-10-10-10-10-10--|

e|---------------------------------------|
B|---------------------------------------|
G|---------------------------------------|
D|-0x--0x--0x---------0x--0x--0x---------|
A|-0x--0x--0x---------0x--0x--0x---------|
D|-0x--0x--0x---------0x--0x--0x---------|

Post Chorus
e|------------|
B|------------|
G|------------|
D|-8~--8-10X--|
A|-8~--8-10x--|
D|-8~--8-10X--|

Verse
e|-----REST---------------------------------------|
B|-----REST---------------------------------------|
G|-----REST---------------------------------------|
D|-----REST----------3-2---3-2---3-2---3-2---3-2--|
A|-----REST--------------3-----3-----3-----3------|
D|-----REST---------------------------------------|

Pre Chorus (x2)
e|-----------------------------------------------|
B|-----------------------------------------------|
G|-----------------------------------------------|
D|-8-8-8-8x----8-8-8-8x----7-7-7-7x----7-7-7-7x--|
A|-8-8-8-8x----8-8-8-8x----7-7-7-7x----7-7-7-7x--|
D|-8-8-8-8x----8-8-8-8x----7-7-7-7x----7-7-7-7x--|

e|----------------------|
B|----------------------|
G|----------------------|
D|-0000-2222-3333-5555--|
A|-0000-2222-3333-5555--| (x2)
D|-0000-2222-3333-5555--|

Chorus (x2)
e|------------------------------------------|
B|------------------------------------------|
G|------------------------------------------|
D|-8-8-8-8-8-8-8-8-10-10-10-10-10-10-10-10--|
A|-8-8-8-8-8-8-8-8-10-10-10-10-10-10-10-10--|
D|-8-8-8-8-8-8-8-8-10-10-10-10-10-10-10-10--|

e|---------------------------------------|
B|---------------------------------------|
G|---------------------------------------|
D|-0x--0x--0x---------0x--0x--0x---------|
A|-0x--0x--0x---------0x--0x--0x---------|
D|-0x--0x--0x---------0x--0x--0x---------|

Post Chorus
e|---------------------------------------------------------|
B|---------------------------------------------------------|
G|---------------------------------------------------------|
D|-8~--8-10~--10-12~--10-12~--12-8~--8-10~--10-12~--12-7~--|
A|-8~--8-10~--10-12~--10-12~--12-8~--8-10~--10-12~--12-7~--|
D|-8~--8-10~--10-12~--10-12~--12-8~--8-10~--10-12~--12-7~--|

Bridge
e|-----------------------------------------|
B|-----------------------------------------|
G|-----------------------------------------|
D|-0~--------0~--------0~--------0~--------|
A|-0~--------0~--------0~--------0~--------|
D|-0~--------0~--------0~--------0~--------|

e|----------------------|
B|----------------------|
G|----------------------|
D|-0000-2222-3333-5555--|
A|-0000-2222-3333-5555--| (x3)
D|-0000-2222-3333-5555--|

e|-----------------------------|
B|-----------------------------|
G|-----------------------------|
D|-7777-8888-1010101010101010--|
A|-7777-8888-1010101010101010--|
D|-7777-8888-1010101010101010--|

Chorus (x2)
e|------------------------------------------|
B|------------------------------------------|
G|------------------------------------------|
D|-8-8-8-8-8-8-8-8-10-10-10-10-10-10-10-10--|
A|-8-8-8-8-8-8-8-8-10-10-10-10-10-10-10-10--|
D|-8-8-8-8-8-8-8-8-10-10-10-10-10-10-10-10--|

e|---------------------------------------|
B|---------------------------------------|
G|---------------------------------------|
D|-0x--0x--0x---------0x--0x--0x---------|
A|-0x--0x--0x---------0x--0x--0x---------|
D|-0x--0x--0x---------0x--0x--0x---------|

Outro
e|---------------|
B|---------------|
G|---------------|
D|-0~--------0x--|
A|-0~--------0x--|
D|-0~--------0x--|

Thanks Enjoy :) 
Tap to rate this tab
 
# A B C D E F G H I J K L M N O P Q R S T U V W X Y Z