Song name
# A B C D E F G H I J K L M N O P Q R S T U V W X Y Z

Alesana - The Artist tab

----------------------------------------------------------------------------
The Artist (intro) - Alesana
----------------------------------------------------------------------------
Tabbed by: Carter Jones

Tuning: Drop D (DADGBE)

There are a lot of hammer-on and pull offs, but I just tabbed what I do, so you can 
it to fit your own standards. Also, you are supposed to mute the low D in between the little 
higher up on the fret board, but you donít HAVE to do those.

Intro (0:00)

E|-------------------------------------------------------------------------|
B|-------------------------------------------------------------------------|
G|----------------------5h7p5----------------------------------------------|
D|-------7-5----7h8p7--------8p5h7----7-5----7h8p7---5h7h8p7-5/3-----------|
A|-------------------------------------------------8-----------------------|
D|---0-0--0--0-0-----0-0----------0-0--0--0-0------------------------------|

     ^arenít completely necessary, but if you do them, mute them!

Repeat, however much necessary, just listen to the song to find out. Iím too lazy. :P

At the end of the whole riff, if you donít want to slide down to 3, then hammer-on the 
fret of the A string.


************************************

| /   Slide Down
| h   hammer-on
| p   pull-off

************************************
Tap to rate this tab
# A B C D E F G H I J K L M N O P Q R S T U V W X Y Z