Song name
# A B C D E F G H I J K L M N O P Q R S T U V W X Y Z

Alexisonfire - Control tab

Control - Alexisonfire

Tuning: Db
Bridge
e|---------------------------------------------------------------------------|
B|---------------------------------------------------------------------------|
G|--/12-11-----------/12-11--------/12-11------------------------------------|
D|---------12-14-9-9--------12-14---------12-14-9-9-9-7-5-7-5-7-12-9-/12-/14-|
A|---------------------------------------------------------------------------|
E|---------------------------------------------------------------------------|

e|---------------------------------------------------------------------------|
B|---------------------------------------------------------------------------|
G|--/12-11-----------/12-11-------/12-11-------------------------------------|
D|---------12-14-9-9--------12-14---------12-14-9-9-9-7-5-7-5-7-12-9-/14-/14-|
A|---------------------------------------------------------------------------|
E|---------------------------------------------------------------------------|
Tap to rate this tab
# A B C D E F G H I J K L M N O P Q R S T U V W X Y Z