Song name
# A B C D E F G H I J K L M N O P Q R S T U V W X Y Z

Alexisonfire - No Rest tab

ALEXISONFIRE - NO REST 

Tune Half-Step Down

I only bothered with the Rhythm Guitar, but here you are anyways.



Intro Riff

|----------------------------------------------------|
|----------------------------------------------------|
|----------------------------------------------------|
|--14-14-14-14-14-14---12-12--19--12-12-12-12-12-12--|
|--X--X--X--X--X--X----X--X---X---X--X--X--X--X--X---|
|--12-12-12-12-12-12---10-10--17--10-10-10-10-10-10--| Repeat and throw in
                                                       the fill as required.

Intro Fill

|-------|
|-------|
|-------|
|--5-3--|
|--5-3--|
|--3-1--|

Verse Fill 1

|-------------------|
|-------------------|
|-------------------|
|--5-5-5--7--2~--2--|
|--5-5-5--7--2~--2--|
|--3-3-3--5--0~--0--|

Verse Fill 2

|---------|
|---------|
|---------|
|--2~--2--|
|--2~--2--|
|--0~--0--|

Verse Fill 3

|-------------|
|-------------|
|-------------|
|--5-5--77-7--|
|--5-5--77-7--|
|--3-3--55-5--|


Pre Chorus

|---------------|
|---------------|
|---------------|
|--5--2~--5-2~--|
|--5--2~--5-2~--|
|--3--0~--3-0~--| Repeated.


Chorus

|--------|
|--------|
|--------|
|--2--3--|
|--2--3--|
|--0--1--| The Chorus is these chords repeated, and you can figure out the            
           strumming for yourself, it is excruciatingly simple.



The Bridge is just the Verse Fills arranged slightly different.

Enjoy.
Tap to rate this tab
# A B C D E F G H I J K L M N O P Q R S T U V W X Y Z