Guitaretab - guitar tabs
Song name
# A B C D E F G H I J K L M N O P Q R S T U V W X Y Z

Alexisonfire - Born And Raised tab

Born and Raised

First tab, but it sounds about right to me.

Tuning half step down

Lead
|---------------------------------------------------------------------|
|----------8-/12h13p12------------------------------------------------|
|----5h7/9-------------12-/7-5-4-------------2p0-2-7p5-5--5h7---------|
|-/7-----------------------------20h2-5p2-5----------7-7-------------|
|---------------------------------------------------------------------|
|---------------------------------------------------------------------|
[ Tab from: http://www.guitaretab.com/a/alexisonfire/189644.html ]
|----------------------------------------------------------------------|
|----8-8-10p8-10--12---------------------------------------------------|
|--/9-9------9-------12-9p7/5-5h7p5-7^--7p5----------------------------|
|----------------------------7-------------7---------------------------|
|-------------------------------------------5-3h5p3-2------3-5^-3-5p3-|
|------------------------------------------------------5p3h5-----------|

|------------------------------0--------------------------------------|
|------------------------------1--------------------------------------|
|---------5-5/4-4-2-0----------2--------------------------------------|
|---------7-7/5-5-3-2-0h2p0----2--------------------------------------|
|-2-3p2--------------------3-2-0--------------------------------------|
|------3--------------------------------------------------------------|
Related for Born And Raised tab