Guitaretab - guitar tabs
Song name
# A B C D E F G H I J K L M N O P Q R S T U V W X Y Z

Alexisonfire - Drunks Lovers Sinners And Saints tab

100% correct.

flat tuning

Guitar 1//////////////////////////////////////////

Verse (00:00  00:39)

Eb|-------|
Bb|-------|
Gb|-------| 
Db|-4-4---|
Ab|-4-4---|
Eb|-2-2---|

Eb|---------------------------------------------------|
Bb|---------------------------------------------------|
Gb|-77-779--9944-4--44-/11--1111-11-1111-4--44-4-44---| 
Db|-xx-xxx--xxxx-x--xx-/x---x-x--x--x-x--x--xx-x-xx---|
Ab|-55-557--7722-2--22-/9---9-9--9--9-9--2--22-2-22---|
Eb|---------------------------------------------------|

Eb|-------------------|
Bb|-------------------|
Gb|-------------------| 
Db|-4-4-4-4-44-4-44---|
Ab|-4-4-4-4-44-4-44---|
Eb|-2-2-2-2-22-2-22---|

Eb|---------------10-7-------|
Bb|-------------------10-7---|
Gb|------7h9p7-7h9-----------| 
Db|-4-4----------------------|
Ab|-4-4----------------------|
Eb|-2-2----------------------|

Eb|---------------------------------------------------|
Bb|---------------------------------------------------|
Gb|-77-779--9944-4--44-/11--1111-11-1111-4--44-4-44---| 
Db|-xx-xxx--xxxx-x--xx-/x---x-x--x--x-x--x--xx-x-xx---|
Ab|-55-557--7722-2--22-/9---9-9--9--9-9--2--22-2-22---|
Eb|---------------------------------------------------|

Eb|-------------------|
Bb|-------------------|
Gb|-------------------| 
Db|-4-4-4-4-44-4-44---|
Ab|-4-4-4-4-44-4-44---|
Eb|-2-2-2-2-22-2-22---|

Eb|------------------------|
Bb|------------------------|
Gb|-9-4--------------------|
Db|-x-x--------------------|
Ab|-7-2-2h4-2--2h4p2h4p2---|
Eb|------------------------|

Eb|-------------------------|
Bb|-------------------------|
Gb|-/11--1111-4-------------| x7 
Db|-/x---x-x--x-------------|
Ab|-/9---9-9--2-2h4p2h4p2---|
Eb|-------------------------|

Pre-Chorus (00:39  00:53)

Eb|--------------------|
Bb|--------------------|
Gb|-11--1111-9--99-4---| x3
Db|-x---x-x--x--xx-x---|
Ab|-9---9-9--7--77-2---|
Eb|--------------------|

Eb|-----------------------------|
Bb|-----------------------------|
Gb|-11--1111-9--99-4\/4\/4\/4---|
Db|-x---x-x--x--xx-x\/x\/x\/x---|
Ab|-9---9-9--7--77-2\/2\/2\/2---|
Eb|-----------------------------|

Eb|----------|
Bb|----------|
Gb|----------| 
Db|-4-4/12---|
Ab|-4-4/12---|
Eb|-2-2/10---|

Chorus (00:53  01:13)

Eb|-------------|
Bb|-------------|
Gb|-7-77-77-7---| x3
Db|-7-77-77-7---|
Ab|-5-55-55-5---|
Eb|-------------|

Eb|---------------|
Bb|---------------|
Gb|---------------|
Db|---------------|
Ab|-7h9-7-5h7p5---|
Eb|---------------|

Eb|-------------|
Bb|-------------|
Gb|-------------| x2
Db|-4-44-44-4---|
Ab|-4-44-44-4---|
Eb|-2-22-22-2---|

Eb|-----------------|
Bb|-----------------|
Gb|-----------------|
Db|-4-4777-4-4999---|
Ab|-4-4777-4-4999---|
Eb|-2-2555-2-2777---|

Eb|-------------|
Bb|-------------|
Gb|-7-77-77-7---| x3
Db|-7-77-77-7---|
Ab|-5-55-55-5---|
Eb|-------------|

Eb|---------------|
Bb|---------------|
Gb|---------------|
Db|---------------|
Ab|-7h9-7-5h7p5---|
Eb|---------------|

Eb|-------------|
Bb|-------------|
Gb|-------------| x2
Db|-4-44-44-4---|
Ab|-4-44-44-4---|
Eb|-2-22-22-2---|

Eb|-----------------|
Bb|-----------------|
Gb|-----------------|
Db|-4-4777-4-4999---|
Ab|-4-4777-4-4999---|
Eb|-2-2555-2-2777---|

Verse 2 (01:13  02:04)

Eb|-------------|
Bb|-------------|
Gb|-------------| 
Db|-4-44-4-4\---|
Ab|-4-44-4-4\---|
Eb|-2-22-2-2\---|

Eb|------------|
Bb|------------|
Gb|-7-6--------| 
Db|-----7-\5---|
Ab|------------|
Eb|------------|

Eb|---------------------------7---|
Bb|-----------------------10-7----|
Gb|-------7-9----------7-9--------| 
Db|-77/9-7-------77/9-7-----------|
Ab|-------------------------------|
Eb|-------------------------------|

Eb|-------------------|
Bb|-------------------|
Gb|-7-6-------7-6-----| 
Db|-----7-\5------7---|
Ab|-------------------|
Eb|-------------------|

Eb|---------------------------7---|
Bb|-----------------------10-7----|
Gb|-------7-9----------7-9--------| 
Db|-77/9-7-------77/9-7-----------|
Ab|-------------------------------|
Eb|-------------------------------|

Eb|-------------------|
Bb|-------------------|
Gb|-7-6-------7-6-----| 
Db|-----7-\5------7---|
Ab|-------------------|
Eb|-------------------|

Eb|---------------------------7---|
Bb|-----------------------10-7----|
Gb|-------7-9----------7-9--------| 
Db|-77/9-7-------77/9-7-----------|
Ab|-------------------------------|
Eb|-------------------------------|

Eb|-------------------|
Bb|-------------------|
Gb|-7-6-------7-6-----| 
Db|-----7-\5------7---|
Ab|-------------------|
Eb|-------------------|

Eb|-------------|
Bb|-------------|
Gb|-------------| 
Db|-4-44-4-4\---|
Ab|-4-44-4-4\---|
Eb|-2-22-2-2\---|

Chorus 2 (02:04  02:43)

Eb|-------------|
Bb|-------------|
Gb|-7-77-77-7---| x3
Db|-7-77-77-7---|
Ab|-5-55-55-5---|
Eb|-------------|

Eb|---------------|
Bb|---------------|
Gb|---------------|
Db|---------------|
Ab|-7h9-7-5h7p5---|
Eb|---------------|

Eb|-------------|
Bb|-------------|
Gb|-------------| x2
Db|-4-44-44-4---|
Ab|-4-44-44-4---|
Eb|-2-22-22-2---|

Eb|-----------------|
Bb|-----------------|
Gb|-----------------|
Db|-4-4777-4-4999---|
Ab|-4-4777-4-4999---|
Eb|-2-2555-2-2777---|


Eb|-------------|
Bb|-------------|
Gb|-7-77-77-7---| x3
Db|-7-77-77-7---|
Ab|-5-55-55-5---|
Eb|-------------|

Eb|---------------|
Bb|---------------|
Gb|---------------|
Db|---------------|
Ab|-7h9-7-5h7p5---|
Eb|---------------|

Eb|-------------|
Bb|-------------|
Gb|-------------| x2
Db|-4-44-44-4---|
Ab|-4-44-44-4---|
Eb|-2-22-22-2---|

Eb|-----------------|
Bb|-----------------|
Gb|-----------------|
Db|-4-4777-4-4999---|
Ab|-4-4777-4-4999---|
Eb|-2-2555-2-2777---|

Eb|-------------|
Bb|-------------|
Gb|-7-77-77-7---| x3
Db|-7-77-77-7---|
Ab|-5-55-55-5---|
Eb|-------------|

Eb|---------------|
Bb|---------------|
Gb|---------------|
Db|---------------|
Ab|-7h9-7-5h7p5---|
Eb|---------------|

Eb|------------------|
Bb|------------------|
Gb|------------------|
Db|-4-4-4-4--44-44---|
Ab|-4-4-4-4--44-44---|
Eb|-2*2*2*2*-22-22---|
............Palm mute 

Eb|--------------|
Bb|--------------|
Gb|--------------|
Db|-777-4-4999---|
Ab|-777-4-4999---|
Eb|-555-2-2777---|

Eb|-------------|
Bb|-------------|
Gb|-7-77-77-7---| x3
Db|-7-77-77-7---|
Ab|-5-55-55-5---|
Eb|-------------|

Eb|---------------|
Bb|---------------|
Gb|---------------|
Db|---------------|
Ab|-7h9-7-5h7p5---|
Eb|---------------|

Eb|-------------|
Bb|-------------|
Gb|-------------| x2
Db|-4-44-44-4---|
Ab|-4-44-44-4---|
Eb|-2-22-22-2---|

Eb|-----------------|
Bb|-----------------|
Gb|-----------------|
Db|-4-4777-4-4999---|
Ab|-4-4777-4-4999---|
Eb|-2-2555-2-2777---|

Bridge (02:43 - 03:21)

Eb|------------------7-----------10p7-----|
Bb|-7--7h10p7-77h10p7-10-7-7h10p7----10---|
Gb|---------------------------------------| x7 
Db|---------------------------------------|
Ab|---------------------------------------|
Eb|---------------------------------------|

Eb|------------------7-----7------------|
Bb|-7--7h10p7-77h10p7-10-7--7h10p7------|
Gb|--------------------------------10---| 
Db|-------------------------------------|
Ab|-------------------------------------|
Eb|-------------------------------------|
[ Tab from: http://www.guitaretab.com/a/alexisonfire/79319.html ]
Eb|-------------|
Bb|-------------|
Gb|-7-77-77-7---| x3
Db|-7-77-77-7---|
Ab|-5-55-55-5---|
Eb|-------------|

Eb|---------------|
Bb|---------------|
Gb|---------------|
Db|---------------|
Ab|-7h9-7-5h7p5---|
Eb|---------------|

Eb|-------------|
Bb|-------------|
Gb|-------------| x2
Db|-4-44-44-4---|
Ab|-4-44-44-4---|
Eb|-2-22-22-2---|

Eb|-----------------|
Bb|-----------------|
Gb|-----------------|
Db|-4-4777-4-4999---|
Ab|-4-4777-4-4999---|
Eb|-2-2555-2-2777---|

Eb|-------------|
Bb|-------------|
Gb|-7-77-77-7---| x3
Db|-7-77-77-7---|
Ab|-5-55-55-5---|
Eb|-------------|

Eb|---------------|
Bb|---------------|
Gb|---------------|
Db|---------------|
Ab|-7h9-7-5h7p5---|
Eb|---------------|

Eb|-------------|
Bb|-------------|
Gb|-------------| x2
Db|-4-44-44-4---|
Ab|-4-44-44-4---|
Eb|-2-22-22-2---|

Eb|-----------------|
Bb|-----------------|
Gb|-----------------|
Db|-4-4777-4-4999---|
Ab|-4-4777-4-4999---|
Eb|-2-2555-2-2777---|

Pre-Chorus (03:21  03:48)

Eb|--------------------|
Bb|--------------------|
Gb|-11--1111-7--77-4---| x3
Db|-x---x-x--x--xx-x---|
Ab|-9---9-9--5--55-2---|
Eb|--------------------|

Eb|-----------------------------|
Bb|-----------------------------|
Gb|-11--1111-7--77-4\/4\/4\/4---|
Db|-x---x-x--x--xx-x\/x\/x\/x---|
Ab|-9---9-9--5--55-2\/2\/2\/2---|
Eb|-----------------------------|

Eb|----------|
Bb|----------|
Gb|----------| 
Db|-4-4/12---|
Ab|-4-4/12---|
Eb|-2-2/10---|

Guitar 2////////////////////////////

Verse (00:00  00:39)

Eb|--------|
Bb|--------|
Gb|--------| 
Db|-4-4\---|
Ab|-x-x\---|
Eb|-2-2\---|

Eb|-----------------------|
Bb|-----------------------|
Gb|-4-44-44-444-4-44-44---| 
Db|-4-44-44-444-4-44-44---|
Ab|-2-22-22-222-2-22-22---|
Eb|-----------------------|

Eb|-------------------|
Bb|-------------------|
Gb|-------------------| 
Db|-4-4-4-4-44-4-44---|
Ab|-4-4-4-4-44-4-44---|
Eb|-2-2-2-2-22-2-22---|

Eb|--------|
Bb|--------|
Gb|--------| 
Db|-4-4\---|
Ab|-x-x\---|
Eb|-2-2\---|

Eb|-----------------------|
Bb|-----------------------|
Gb|-4-44-44-444-4-44-44---| 
Db|-4-44-44-444-4-44-44---|
Ab|-2-22-22-222-2-22-22---|
Eb|-----------------------|

Eb|-------------------|
Bb|-------------------|
Gb|-------------------| 
Db|-4-4-4-4-44-4-44---|
Ab|-4-4-4-4-44-4-44---|
Eb|-2-2-2-2-22-2-22---|

Eb|---------------|
Bb|---------------|
Gb|---------------| 
Db|-9\/9-99-999---|
Ab|-x\/x-99-999---|
Eb|-7\/7-77-777---|

Eb|-----------------------|
Bb|-----------------------|
Gb|-4-44-44-444-4-44-44---| x2
Db|-4-44-44-444-4-44-44---|
Ab|-2-22-22-222-2-22-22---|
Eb|-----------------------|

Eb|---------------|
Bb|---------------|
Gb|---------------| 
Db|-9\/9-99-999---|
Ab|-x\/x-99-999---|
Eb|-7\/7-77-777---|

Eb|-----------------------|
Bb|-----------------------|
Gb|-4-44-44-444-4-44-44---| x2
Db|-4-44-44-444-4-44-44---|
Ab|-2-22-22-222-2-22-22---|
Eb|-----------------------|

Pre-Chorus (00:39  00:53)

Eb|--------------------|
Bb|--------------------|
Gb|-11--1111-9--99-4---| x3
Db|-x---x-x--x--xx-x---|
Ab|-9---9-9--7--77-2---|
Eb|--------------------|

Eb|-----------------------------|
Bb|-----------------------------|
Gb|-11--1111-9--99-4\/4\/4\/4---|
Db|-x---x-x--x--xx-x\/x\/x\/x---|
Ab|-9---9-9--7--77-2\/2\/2\/2---|
Eb|-----------------------------|

Eb|----------|
Bb|----------|
Gb|----------| 
Db|-4-4/12---|
Ab|-4-4/12---|
Eb|-2-2/10---|

Chorus (00:53  01:13)

Eb|-------------|
Bb|-------------|
Gb|-7-77-77-7---| x4
Db|-7-77-77-7---|
Ab|-5-55-55-5---|
Eb|-------------|

Eb|-------------|
Bb|-------------|
Gb|-------------| x2
Db|-4-44-44-4---|
Ab|-4-44-44-4---|
Eb|-2-22-22-2---|

Eb|-----------------|
Bb|-----------------|
Gb|-----------------|
Db|-4-4777-4-4999---|
Ab|-4-4777-4-4999---|
Eb|-2-2555-2-2777---|

Eb|-------------|
Bb|-------------|
Gb|-7-77-77-7---| x4
Db|-7-77-77-7---|
Ab|-5-55-55-5---|
Eb|-------------|

Eb|-------------|
Bb|-------------|
Gb|-------------| x2
Db|-4-44-44-4---|
Ab|-4-44-44-4---|
Eb|-2-22-22-2---|

Eb|-----------------|
Bb|-----------------|
Gb|-----------------|
Db|-4-4777-4-4999---|
Ab|-4-4777-4-4999---|
Eb|-2-2555-2-2777---|

Verse 2 (01:13  02:04)

*wierd wah thing* 

Chorus 2 (02:04  02:43)

Eb|-------------|
Bb|-------------|
Gb|-7-77-77-7---| x4
Db|-7-77-77-7---|
Ab|-5-55-55-5---|
Eb|-------------|

Eb|-------------|
Bb|-------------|
Gb|-------------| x2
Db|-4-44-44-4---|
Ab|-4-44-44-4---|
Eb|-2-22-22-2---|

Eb|-----------------|
Bb|-----------------|
Gb|-----------------|
Db|-4-4777-4-4999---|
Ab|-4-4777-4-4999---|
Eb|-2-2555-2-2777---|

Eb|-------------|
Bb|-------------|
Gb|-7-77-77-7---| x4
Db|-7-77-77-7---|
Ab|-5-55-55-5---|
Eb|-------------|

Eb|-------------|
Bb|-------------|
Gb|-------------| x2
Db|-4-44-44-4---|
Ab|-4-44-44-4---|
Eb|-2-22-22-2---|

Eb|-----------------|
Bb|-----------------|
Gb|-----------------|
Db|-4-4777-4-4999---|
Ab|-4-4777-4-4999---|
Eb|-2-2555-2-2777---|

Eb|-------------|
Bb|-------------|
Gb|-7-77-77-7---| x4
Db|-7-77-77-7---|
Ab|-5-55-55-5---|
Eb|-------------|

Eb|------------------|
Bb|------------------|
Gb|------------------|
Db|-4-4-4-4--44-44---|
Ab|-4-4-4-4--44-44---|
Eb|-2*2*2*2*-22-22---|
............Palm mute 

Eb|--------------|
Bb|--------------|
Gb|--------------|
Db|-777-4-4999---|
Ab|-777-4-4999---|
Eb|-555-2-2777---|

Eb|-------------|
Bb|-------------|
Gb|-7-77-77-7---| x4
Db|-7-77-77-7---|
Ab|-5-55-55-5---|
Eb|-------------|

Eb|-------------|
Bb|-------------|
Gb|-------------| x2
Db|-4-44-44-4---|
Ab|-4-44-44-4---|
Eb|-2-22-22-2---|

Eb|-----------------|
Bb|-----------------|
Gb|-----------------|
Db|-4-4777-4-4999---|
Ab|-4-4777-4-4999---|
Eb|-2-2555-2-2777---|

Bridge (02:43 - 03:21)

Eb|-------|
Bb|-------|
Gb|-7-\---|
Db|-7-\---|
Ab|-5-\---|
Eb|-------|

Eb|-----|
Bb|-----|
Gb|-----|
Db|-4---|
Ab|-4---|
Eb|-2---|

Eb|-------|
Bb|-------|
Gb|-77\---|
Db|-77\---|
Ab|-55\---|
Eb|-------|

Eb|-----|
Bb|-----|
Gb|-----|
Db|-4---|
Ab|-4---|
Eb|-2---|

Eb|-----|
Bb|-----|
Gb|-----| *pick slide* 
Db|-/---|
Ab|-/---|
Eb|-/---|

Eb|-------------|
Bb|-------------|
Gb|-7-77-77-7---| x4
Db|-7-77-77-7---|
Ab|-5-55-55-5---|
Eb|-------------|

Eb|-------------|
Bb|-------------|
Gb|-------------| x2
Db|-4-44-44-4---|
Ab|-4-44-44-4---|
Eb|-2-22-22-2---|

Eb|-----------------|
Bb|-----------------|
Gb|-----------------|
Db|-4-4777-4-4999---|
Ab|-4-4777-4-4999---|
Eb|-2-2555-2-2777---|

Eb|-------------|
Bb|-------------|
Gb|-7-77-77-7---| x4
Db|-7-77-77-7---|
Ab|-5-55-55-5---|
Eb|-------------|

Eb|-------------|
Bb|-------------|
Gb|-------------| x2
Db|-4-44-44-4---|
Ab|-4-44-44-4---|
Eb|-2-22-22-2---|

Eb|-----------------|
Bb|-----------------|
Gb|-----------------|
Db|-4-4777-4-4999---|
Ab|-4-4777-4-4999---|
Eb|-2-2555-2-2777---|

Pre-Chorus (03:21  03:48)

Eb|--------------------|
Bb|--------------------|
Gb|-11--1111-9--99-4---| x3
Db|-x---x-x--x--xx-x---|
Ab|-9---9-9--7--77-2---|
Eb|--------------------|

Eb|-----------------------------|
Bb|-----------------------------|
Gb|-11--1111-9--99-4\/4\/4\/4---|
Db|-x---x-x--x--xx-x\/x\/x\/x---|
Ab|-9---9-9--7--77-2\/2\/2\/2---|
Eb|-----------------------------|

Eb|----------|
Bb|----------|
Gb|----------| 
Db|-4-4/12---|
Ab|-4-4/12---|
Eb|-2-2/10---|
Related for Drunks Lovers Sinners And Saints tab