Song name
# A B C D E F G H I J K L M N O P Q R S T U V W X Y Z

Alexisonfire - Boiled Frogs tab

Song Name: Boiled Frogs
Artist: Alexisonfire
Album: Crisis

e|-------------------------------------------------|
B|-------------------------------------------------|
G|-----3-3-3---------------3-3-3-------------------|
D|---------------3-3-3---------------3-3-3---------|
A|-----------4h6-------4h6-------4h6-------4h6-----|
D|-------------------------------------------------|

e|-----------------------------------------------|
B|-----------------------------------------------|
G|-----6-6-6---------------6-6-6-----------------|
D|---------------3-3-3---------------3-3-3-3-----|
A|-----------4h6-------4h6-------4h6-------------|
D|-----------------------------------------------|
Tap to rate this tab
# A B C D E F G H I J K L M N O P Q R S T U V W X Y Z