Song name
# A B C D E F G H I J K L M N O P Q R S T U V W X Y Z

Alice Cooper - Long Way To Go tab

Help us improve GuitareTab! Take a short survey!
Band: Alice Cooper
Song: Long Way to Go
Album: Love It To Death
Year: 1971
Tabbed by DoteStudios
Email is manbearpigisreal@gmail.com

 I didn't re-do the whole song because the one already on this site is very well done, 
it doesn't include the solo. I tabbed the solo out, you have to play it very fast.

Keys
b = bend
r = release
\ = slide up neck
/ = slide down neck
h = hammer-on
p = pull-off
~ = hold note
w = whammy bar
v = vibrato

E---------------------------------------------------------------------|
B---------------------------------------------------------------------|
G-------------------------------12----14-15-16-14---------------------|
D-------------12----12h14p12h14----14-------------17-14-12-12h14p12h14|
A-12h14p12h14----14---------------------------------------------------|
E---------------------------------------------------------------------|

E---------------------------------------------------------------------|
B-------------------12-------12----------------15b17-17r15p12-15-12---|
G-12----12-14-14b16----14b16----16r14-14-12-14------------------------|
D----14---------------------------------------------------------------|
A---------------------------------------------------------------------|
E---------------------------------------------------------------------|

E---------------------------------------------------------------------|
B----12--15b17-17r15p12------------------------------------------12---|
G-14--------------------14-----12-14b16-16r14p12-14-12--14-14b16----14|
D---------------------------14----------------------------------------|
A---------------------------------------------------------------------|
E---------------------------------------------------------------------|

E----------------------15b17-17r15-12-------------12-12-12-12-12--12--|
B-------12----------12----------------15-12-15b17~~~~~~~~~~~~~~~~b17--|
G-14b16----14-14b16--------------------------------^------------------|
D--------------------------------------------------|------------------|
A--------------------------------------------------|------------------|
E--------------------------------------------------|------------------|
			    Hold the 15th fret in a full
   			    bend the whole time
Related for Long Way To Go tab