Song name
# A B C D E F G H I J K L M N O P Q R S T U V W X Y Z

Alice In Chains - Them Bones tab

Riff A
------

    
|-----------------------------|-----------------------------|
|-----------------------------|-----------------------------|
|-7---------------------------|-7---------------------------|
|-7---0-0-1-1-1-1-2-2-2-3-0-0-|-7---0-0-1-1-1-1-2-2-2-3-0-0-|
|-5---0-0-1-1-1-1-2-2-2-3-0-0-|-5---0-0-1-1-1-1-2-2-2-3-0-0-|
|-----0-0-1-1-1-1-2-2-2-3-0-0-|-----0-0-1-1-1-1-2-2-2-3-0-0-|
  1 + 2 + 3 + 4 + 5 + 6 + 7 +   1 + 2 + 3 + 4 + 5 + 6 + 7 +

P.M.  [---------------------------------------------------]


                                           
|-----------------------------|-----------------------------|
|-----------------------------|-----------------------------|
|-7---------------------------|-7---------------------------|
|-7---0-0-1-1-1-1-2-2-2-3-0-0-|-7---0-0-1-1-1-1-2-2-2-3-----|
|-5---0-0-1-1-1-1-2-2-2-3-0-0-|-5---0-0-1-1-1-1-2-2-2-3-----|
|-----0-0-1-1-1-1-2-2-2-3-0-0-|-----0-0-1-1-1-1-2-2-2-3-----|
  1 + 2 + 3 + 4 + 5 + 6 + 7 +   1 + 2 + 3 + 4 + 5 + 6 + 7 +

P.M.  [---------------------------------------------------]


Riff B
------

    
|-----------------------------|
|-----------------------------|
|-7---------------------------|
|-7---0---1---1---2---2-3-----|
|-5---0---1---1---2---2-3-----|
|-----0---1---1---2---2-3-----|
  1 + 2 + 3 + 4 + 5 + 6 + 7 +  


Chorus
------

 
|---------------------------------|-----------------------------------|
|-----------------------------10--|-----------------------------------|
|---------------------------------|-----------------------------------|
|-8---8---8-8-8-7---7-7---9h11----|10--10--10-10-10-9---9-9-0-8-8-----|
|-8---8---8-8-8-7---7-7-----------|10--10--10-10-10-9---9-9-0-8-8-----|
|-8---8---8-8-8-7---7-7-----------|10--10--10-10-10-9---9-9-0-8-8-----|
  1 + 2 + 3 + 4 + 5 + 6 + 7 + 8 +   1 + 2 + 3  +  4 + 5 + 6 + 7 + 8 + 

From "Dirt" by Alice in Chains (1992)

Transcribed by Peter Burgess
Tap to rate this tab
 
# A B C D E F G H I J K L M N O P Q R S T U V W X Y Z