Guitaretab - guitar tabs
Song name
# A B C D E F G H I J K L M N O P Q R S T U V W X Y Z

Alice In Chains - Got Me Wrong tab

-------------------------------------------------------------------------------
			 Alice in Chains - Got me Wrong
-------------------------------------------------------------------------------

 By: arw812@yahoo.co.uk

 This song is probably meant to be played tuned to dropped-D and down half a
 step, but this transcription works for standard tuning.


  Verse        				Bridge
e|------------------------------------|--------------------------------------|
B|------------------------------------|--------------------------------------|
G|---------x-x--8-8-8--10-------------|----6-6--9-9--5-5---------------------|
D|----5-5--x-x--8-8-8--10-------------|----6-6--9-9--5-5--6-6----------------|
A|----5-5--x-x--6-6-6--8--------------|----4-4--7-7--3-3--6-6----------------|
E|----3-3-----------------------------|-------------------4-4----------------|

  Chorus - repeat as necessary		...then, end bit of chorus
e|------------------------------------|--------------------------------------|
B|------------------------------------|--------------------------------------|
G|----8-8-----------------------------|--------------------------------------|
D|----8-8--3-3--6-6-6-6-6-6-6-6-------|-----3-3-3-3-3-3-3-3--6-6-6-6-6-6-6-6-|
A|----6-6--3-3--6-6-6-6-6-6-6-6-------|-----3-3-3-3-3-3-3-3--6-6-6-6-6-6-6-6-|
E|---------1-1--4-4-4-4-4-4-4-4-------|-----1-1-1-1-1-1-1-1--4-4-4-4-4-4-4-4-|




 Listen to the CD and play along.
[ Tab from: http://www.guitaretab.com/a/alice-in-chains/23867.html ]
Related for Got Me Wrong tab
Advertisement will be closed in 10 seconds