Song name
# A B C D E F G H I J K L M N O P Q R S T U V W X Y Z

Alice In Chains - Hate To Feel tab

Alice In Chains
Dirt
Hate To Feel

As On Most Alice In Chains Tune Your Guitar Down A Half Step

Intro/Verses
eb|--------------------------------|
Bb|--------------------------------|
Gb|--------------------------------|
Db|---6--5--4-------------(2)(5)---|
Ab|---7--6--5-----6--5--4-(2)(5)---|
Eb|---------------7--6--5--0--3~~~~|


Prechorus
eb|-------------------------------------|
Bb|-------------------------------------|
Gb|------3------3-----------------------|
Db|--2-2-3--2-2-3-----------------------|
Ab|--2-2-1--2-2-1---pick-scrape-4th-time|
Eb|--0-0----0-0-------------------------|4x

eb|---------------------------|
Bb|---------------------------|
Gb|---------------------------|
Db|--2-2-8--2-2-8-------------|
Ab|--2-2-8--2-2-8------<7>-<7>|
Eb|--0-0-6--0-0-6------<5>-<5>|4x


eb|----------------------------------|
Bb|----------------------------------|
Gb|------------------3-3-3-3-3-------|
Db|--2-2-2-2-3-3-3-3-3-3-3-3-3-2-2-2-|
Ab|--2-2-2-2-3-3-3-3-1-1-1-1-1-2-2-2-|
Eb|--0-0-0-0-1-1-1-1-----------0-0-0-|


Chorus
eb|------------------------|
Bb|------------------------|
Gb|--------------3---------|
Db|--2-2-2-2-2-2-3---------|
Ab|--2-2-2-2-2-2-1---------|
Eb|--0-0-0-0-0-0-----------|

For the outro hit this a bunch of times

eb|----|
Bb|-12-|
Gb|-12-|
Db|----|
Ab|----|
Eb|----|
Tap to rate this tab
# A B C D E F G H I J K L M N O P Q R S T U V W X Y Z