Guitaretab - guitar tabs
Song name
# A B C D E F G H I J K L M N O P Q R S T U V W X Y Z

Alice In Chains - Sludge Factory tab

-------------------------------------------------------------------------------
			     Sludge Factory - Alice In Chains
-------------------------------------------------------------------------------

Album: Alice In Chains: Unplugged
Tuning: Drop D Down Half Step

b = bend		h = hammer on
r = release		p = pull off
s = slide		v = vibrato

Intro:

	  F5 Dsus2		   D5    D5
e  |------------0--0--0--0--0--0--0--0--0--0--0--0--0-|	
B  |------------3--3--3--3--3--3--3--3--3--3--3--3--3-|
G  |------------2--2--2--2--2--2--2--2--2--2--2--2--2-| x4
D  |--1--3--0---0--0--0--0--0--0--0--0--0--0--0--0--0-|
A  |--1--3--0---0--0--0--0--0--0--0--0--0--0--0--0--0-|
E  |--1--3--0---------------------0-----0-------------|

Verse:
	  F5 Dsus2		   D5    D5
e  |------------0--0--0--0--0--0--0--0--0--0--0--0--0-|	
B  |------------3--3--3--3--3--3--3--3--3--3--3--3--3-|
G  |------------2--2--2--2--2--2--2--2--2--2--2--2--2-| x8
D  |--1--3--0---0--0--0--0--0--0--0--0--0--0--0--0--0-|
A  |--1--3--0---0--0--0--0--0--0--0--0--0--0--0--0--0-|
E  |--1--3--0---------------------0-----0-------------|

You insult me in my home you're forgiven this time
Things go well, your eyes dilate you shake, and I'm high?
Look in my eyes deep and watch the clouds change with time
20 hours won't print my picture milk carton size
carton size
carton size
carton size

Verse:
	  F5 Dsus2		   D5    D5
e  |------------0--0--0--0--0--0--0--0--0--0--0--0--0-|	
B  |------------3--3--3--3--3--3--3--3--3--3--3--3--3-|
G  |------------2--2--2--2--2--2--2--2--2--2--2--2--2-| x4
D  |--1--3--0---0--0--0--0--0--0--0--0--0--0--0--0--0-|
A  |--1--3--0---0--0--0--0--0--0--0--0--0--0--0--0--0-|
E  |--1--3--0---------------------0-----0-------------|

call me up congratulations ain't the real why
There's no pressure besides brilliance let's say by day 9
Endless corporate ignorance lets me control time
by the way, by the way, by the way, by the way


Chorus
Guitar 2 Plays Verse Riff as backing for lead guitar

e  |------------------------------------|----------------------------------|
B  |--2h3-s5-s10-8----------------------|--2h3-s5--------------------------|
G  |---------------7-6-5v---------------|---------5-4-2-4-4b--4-2----------|
D  |----------------------5-4-3v--------|-------------------------3--------|
A  |-----------------------------3-4s5--|---------------------------3-4s5--|
E  |------------------------------------|----------------------------------|
       			Once again you see an in...

e  |------------------------------------|----------------------------------|
B  |--2h3-s5-s10-8----------------------|--2h3-s5-s10-8--------------------|
G  |---------------7-6-5v---------------|----------------7-6-5v------------|
D  |----------------------5-4-3v--------|------------------------5-4-3v----|
A  |-----------------------------3-4s5--|----------------------------------|
E  |------------------------------------|----------------------------------|
     			So afraid you kindly gurgle out...

once again you see an in 
discolored skin gives you away
so afraid you kindly gurgle out a date
for me

Intro:
	  F5 Dsus2		   D5    D5
e  |------------0--0--0--0--0--0--0--0--0--0--0--0--0-|	
B  |------------3--3--3--3--3--3--3--3--3--3--3--3--3-|
G  |------------2--2--2--2--2--2--2--2--2--2--2--2--2-| x4
D  |--1--3--0---0--0--0--0--0--0--0--0--0--0--0--0--0-|
A  |--1--3--0---0--0--0--0--0--0--0--0--0--0--0--0--0-|
E  |--1--3--0---------------------0-----0-------------|
[ Tab from: http://www.guitaretab.com/a/alice-in-chains/385.html ]
Verse:
	  F5 Dsus2		   D5    D5
e  |------------0--0--0--0--0--0--0--0--0--0--0--0--0-|	
B  |------------3--3--3--3--3--3--3--3--3--3--3--3--3-|
G  |------------2--2--2--2--2--2--2--2--2--2--2--2--2-| x4
D  |--1--3--0---0--0--0--0--0--0--0--0--0--0--0--0--0-|
A  |--1--3--0---0--0--0--0--0--0--0--0--0--0--0--0--0-|
E  |--1--3--0---------------------0-----0-------------|


now the body of one soul I adore wants to die
you have always told me you'd not live past 25
I say stay long enough to repay all who caused strife

SOLO

E  |-------------------------|--------------------------|
B  |--------6-----6--8-7-6v--|------6---6v------6---6v--|
G  |--5--7-----7-------------|--7-7---7-----7-7---7-----|
D  |-------------------------|--------------------------|
A  |-------------------------|--------------------------|
E  |-------------------------|--------------------------|

E  |-------------------------------|--------------------------------|
B  |------8-7-6--------------------|--------------------------------|
G  |--7-7-------7--5h7-5h7-5h7-7v--|--5h7p5-------------------------|
D  |-------------------------------|--------7-5-7-5-3--5-3-5p3------|
A  |-------------------------------|----------------------------5v--|
E  |-------------------------------|--------------------------------|

E  |--------------------------------------|-------------------|
B  |--------------------------------------|-------------------|
G  |--------------------------------------|-------------------|
D  |--------------------------------------|------3-3s5--7--5--|
A  |--5p3-----------3--5--5---3---3h5-5v--|--3h5--------------|
E  |-------3v----5--------------5---------|-------------------|

E  |--------------------|-------------8--------------|
B  |--------------------|--6---6--9b-----9r--6-8-----|
G  |--------5--7-7-7-7--|----7-------------------7v--|
D  |--5--7--------------|----------------------------|
A  |--------------------|----------------------------|
E  |--------------------|----------------------------|

Chorus

e  |------------------------------------|----------------------------------|
B  |--2h3-s5-s10-8----------------------|--2h3-s5--------------------------|
G  |---------------7-6-5v---------------|---------5-4-2-4-4b--4-2----------|  
D  |----------------------5-4-3v--------|-------------------------3--------|
A  |-----------------------------3-4s5--|---------------------------3-4s5--|
E  |------------------------------------|----------------------------------|
       			Once again you see an in...

e  |------------------------------------|----------------------------------|
B  |--2h3-s5-s10-8----------------------|--2h3-s5-s10-8--------------------|
G  |---------------7-6-5v---------------|----------------7-6-5v------------|  
D  |----------------------5-4-3v--------|------------------------5-4-3v----|
A  |-----------------------------3-4s5--|----------------------------------|  
E  |------------------------------------|----------------------------------|
     			So afraid you kindly gurgle out...                     x2

once again you see an in 
discolored skin gives you away
so afraid you'd kindly gurgle out a date
for me
once again you see an in 
discolored skin gives you away
so afraid you'd kindly gurgle out a date
for me

Intro:
	  F5 Dsus2		   D5    D5
e  |------------0--0--0--0--0--0--0--0--0--0--0--0--0-|	
B  |------------3--3--3--3--3--3--3--3--3--3--3--3--3-|
G  |------------2--2--2--2--2--2--2--2--2--2--2--2--2-| x4
D  |--1--3--0---0--0--0--0--0--0--0--0--0--0--0--0--0-|
A  |--1--3--0---0--0--0--0--0--0--0--0--0--0--0--0--0-|
E  |--1--3--0---------------------0-----0-------------|

End
Related for Sludge Factory tab
Sludge Factory chords by Alice In Chains