Song name
# A B C D E F G H I J K L M N O P Q R S T U V W X Y Z

Alice Nine - Akatsuki tab

Artist:  Alice Nine
Song:    Akatsuki

Full 5th Chords
AFINATION:  Dropped D    DADGBE


D#5=

E x------   or   x------|
B x------        x------|
G x------         --8---|
D x------         --8---|
A ---13--         --6---|
D ---13--        x------|

C#5=

E x------   or   x------|
B x------        x------|
G x------         --6---|
D x------         --6---|
A ---11--         --4---|
D ---11--        x------|


B5=

E x------  or    x------|
B x------        x------|
G x------         ---4--|
D x------         ---4--|
A ---9--          ---2--|
D ---9--         x------|


F#5=

E x------|
B x------|
G x------|
D x------|
A ---4---|
D ---4---|

INTRO:


D#5   C#5   B5   F#5

D#5   C#5   B5   C#5


E ----------------------------------------------|
B --6-6-6-6-6-7-6---6-6-6-6-6-6-7-6---6-6-6-6---|
G --6-6-6-6-6-6-6---6-6-6-6-6-6-6-6---6-6-6-6---|
D ----------------------------------------------|
A ----------------------------------------------|
D ----------------------------------------------|
Tap to rate this tab
# A B C D E F G H I J K L M N O P Q R S T U V W X Y Z