Song name
# A B C D E F G H I J K L M N O P Q R S T U V W X Y Z

Alien Ant Farm - Summer tab

Help us improve GuitareTab! Take a short survey!
Alien Ant Farm- Summer
from the Album 'Anthology'
tabbed by jjhand
Note: Eb Tuning!

I added to and corrected much of a previous tab written by omnifreak102
on mxtabs.net, and it now sounds really good, so enjoy!

Intro/ verse (with some ad-lib here & there)
Eb|-------------------------------------------------------------------|
Bb|-------------------------------------------------------------------|
Gb|--7-77x-x-5-55x-x-5-55x-x-5-55x-x----------------------------------|
Db|--7-77x-x-7-77x-x-4-44x-x-7-77x-x-3-33x-x-3-33x-x-8-88x-x----------|
Ab|--5-55x-x-5-55x-x-5-55x-x-5-55x-x-3-33x-x-3-33x-x-8-88x-x-9-99x-x--|
Eb|----------------------------------1-11x-x-1-11x-x-6-66x-x-5-55x-x--|


Chorus
Eb|--1-1-1-1-1-1-1-1-1-1-1-1-|--------------------------|
Bb|--1-1-1-1-1-1-1-1-1-1-1-1-|--------------------------|
Gb|--3-3-3-3-3-3-3-3-3-3-3-3-|-0-0-0-0-0-0-0-0-0-0-0-0--|
Db|--3-3-3-3-3-3-3-3-3-3-3-3-|-3-3-3-3-3-3-3-3-3-3-3-3--|
Ab|--1-1-1-1-1-1-1-1-1-1-1-1-|-3-3-3-3-3-3-3-3-3-3-3-3--|
Eb|--------------------------|-1-1-1-1-1-1-1-1-1-1-1-1--| 
                                                            Chorus Ending
   --0-0-0-0-0-0-0-0-0-0-0-0-|--------------------------|    ------------|
   --0-0-0-0-0-0-0-0-0-0-0-0-|-0-0-0-0-0-0-0-0-0-0-0-0--|    ------------|
   --2-2-2-2-2-2-2-2-2-2-2-2-|-4-4-4-4-4-4-2-2-2-2-2-2--|    4-4-4-4-----|
   --2-2-2-2-2-2-2-2-2-2-2-2-|-0-0-0-0-0-0-0-0-0-0-0-0--|    0-0-0-0--4--|
   --0-0-0-0-0-0-0-0-0-0-0-0-|-x-x-x-x-x-x-x-x-x-x-x-x--|    ---------4--|
   --------------------------|-3-3-3-3-3-3-1-1-1-1-1-1--|    3-3-3-3--2--|

Transition
Eb|------------|
Bb|------------|
Gb|--5-5--5-5--|
Db|--5-5--5-5--|
Ab|--3-3--3-3--|
Eb|------------|

Play Verse riff
Play Chorus 2x without Chorus Ending

Modified Verse (play 4x):
Eb|----------------------------------------------------------------------|
Bb|---------------------------------------------------------------------o|
Gb|--7--7-7--5--5-5--5--5-5--5--5-5--------------------------------------|
Db|--7--7-7--7--7-7--4--4-4--7--7-7--3--3-3--/15--15-15--8--8-8----------|
Ab|--5--5-5--5--5-5--5--5-5--5--5-5--3--3-3--/15--15-15--8--8-8--9--9-9-o|
Eb|----------------------------------1--1-1--/13--13-13--6--6-6--5--5-5--|

Then:
Eb|-----------|---------------
Bb|-----------|---------------
Gb|---3-------|--3-3-3-3--5---
Db|---3-------|--3-3-3-3--5---
Ab|---1-------|--1-1-1-1--3---
Eb|---1-------|--1-1-1-1--3---


Bridge
Eb|--------------------------------------------------------------------
Bb|--------------------------------------------------------------------
Gb|--------------------------------------------------------------------
Db|--5-5-5/10-10-10-10-10-10-10-10-10-10-5---5-5-5-5-5---5-5-5-5-------
Ab|--3-3-3/8--8--8--7--7--7--7--7--7--7--3h5-3-3-3-0-3h5-3-0-0-0-------
Eb|-----------------------8--8--8--8--8-------------------------------- 

   --------------------------------------------------------------------
   --------------------------------------------------------------------
   --------------------------------------------------------------------
   --3-3-3/10-10-10-10-10-10-10-10-10-10-5---5-5-5-5-5---5-5-5-5-------
   --1-1-1/8--8--8--7--7--7--7--7--7--7--3h5-3-3-3-0-3h5-3-0-0-0-------
   -----------------------8--8--8--8--8--------------------------------

   --------------------------------------------------------------------
   --------------------------------------------------------------------
   --------------------------------------------------------------------
   --5-5-5/10-10-10-10-10-10-10-10-10-10-5---5-5-5-5-5---5-5-5-5-------
   --3-3-3/8--8--8--7--7--7--7--7--7--7--3h5-3-3-3-0-3h5-3-0-0-0-------
   -----------------------8--8--8--8--8--------------------------------

   -------------------------------------------------------------------|
   -------------------------------------------------------------------|
   -------------------------------------------------------------------|
   --3-3-3/10-10-10-10-10-10-10-10-10-10-5-5-5-5-5-5-5-5-5-5-5-5------|
   --1-1-1/8--8--8--7--7--7--7--7--7--7--3-3-3-3-3-3-3-3-3-3-3-3------|
   -----------------------8--8--8--8--8-------------------------------|

Breakdown (play 3 times)
Eb|-----------------------------------------------------------|
Bb|----------------------------------------------------------o|
Gb|--3-3-3/10-10-10-9-9-5-5-5-5-5/7-5-5-5-5-5/7-5-----5-------|
Db|-----------------------------------------------7-7---------|
Ab|--1-1-1/8--8--8--7-7-3-3-3-3-3/5-3-3-3-3-3/5-3-----3------o| 
Eb|-----------------------------------------------5-5---------|

   last time
   -------------------------------------------------------------------|
   -------------------------------------------------------------------|
   --3-3-3/10-10-10-9-9-5-5-5-5-5/17-17-17-17-17-17-17-17-17-17-17-17-|
   -------------------------------------------------------------------|
   --1-1-1/8--8--8--7-7-3-3-3-3-3/15-15-15-15-15-15-15-15-15-15-15-15-|
   -------------------------------------------------------------------|

Last chorus (3 times)
Eb|----------------------------------------------------|
Bb|---------------------------------------------------o|
Gb|--3-3-3-3-3-3-------------5-5-5-5-5-5-5-5-5-5-5-5---|
Db|--3-3-3-3-3-3-3-3-3-3-3-3-5-5-5-5-5-5-5-5-5-5-5-5---|
Ab|--1-1-1-1-1-1-3-3-3-3-3-3-3-3-3-3-3-3-3-3-3-3-3-3--o|
Eb|--1-1-1-1-1-1-1-1-1-1-1-1-3-3-3-3-3-3-3-3-3-3-3-3---|

   ending (acoustic?)
   --------------------------0------------------------|
   --------------------------1------------------------|
   --3-----------------------0------------------------|
   --3-----------------------2------------------------|
   --1-----------------------3------------------------|
   --------------------------3------------------------|
Related for Summer tab