Song name
# A B C D E F G H I J K L M N O P Q R S T U V W X Y Z

Alien Ant Farm - 1000 Days tab

Alien Ant Farm
1000 Days
truANT


Some strumming not 100%


Intro 

e|-------------------------------------------------------------------------|
B|-------------------------------------------------------------------------|
G|-------------------------------------------------------------------------|
D|-2-3-4-5-4--7-5-5-7-7----------------------------------------------------|
A|-2-3-4-5-2--7-5-5-5-5-8-8------------------------------------------------|
E|-0-1-2-3-2--5-3-3-5-5-8-8------------------------------------------------|


Part in the end of the first verse..grad. release PM
e|-------------------------------------------------------------------------|
B|-------------------------------------------------------------------------|
G|-9-----------------------------------------------------------------------|
D|-x-----------------------------------------------------------------------|
A|-7-----------------------------------------------------------------------|
E|-------------------------------------------------------------------------|


Chorus
e|-------------------------------------------------------------------------|
B|-------------------------------------------------------------------------|
G|-------------------------------------------------------------------------|
D|-10----7---5----/7-5----7------------------------------------------------|
A|-7-----6---2----/4-3----4------------------------------------------------|
E|-8-----7---3----/5-2----5------------------------------------------------

Post Chorus
e|-------------------------------------------------------------------------|
B|-------------------------------------------------------------------------|
G|-------4-4-----------2-2-------------------------------------------------|
D|-----2-----2-2-----1-----1-1--------5---------5--------------------------|
A|-3-3-----------2-2----------------2---2-----2----------------------------|
E|------------------------------3-3-------3-3-----3/2----------------------|


Post chorus leading into bridge
e|-------------------------------------------------------------------------|
B|-------------------------------------------------------------------------|
G|-------4-4---------2-2-------------7-6-----------------------------------|
D|-----2-----2-----1-----1-1-------7-------5---4---3----9--7--9-7--7-------|
A|-3-3---------2-2---------------3---------5---4---3----9--7--9-7--7-------|
E|---------------------------5-5-----------3---2---1----7--5--7-5--9-------|


Bridge..not shown 100%  listen
e|-------------------------------------------------------------------------|
B|-------------------------------------------------------------------------|
G|-------------------------------------------------------------------------|
D|-2--4---5----7-----4---7-------------------------------------------------|
A|-2--4---5----7-----2---7-------------------------------------------------|
E|-0--2---3----5-7---2---5-(2)-(3)-(4)-(5)-harmonics-----------------------|


e|-------------------------------------------------------------------------|
B|-------------------------------------------------------------------------|
G|-------------------------------------------------------------------------|
D|-2--4--5---7-----5--7----------------------------------------------------|
A|-2--4--5---7-----3--7---(5)-pinch harmonic-only on last time-------------|
E|-0--2--3---5-7---3--5----------------------------------------------------|


End
e|-------------------------------------------------------------------------|
B|-------------------------------------------------------------------------|
G|-------4-4-------2-2-2---------------------------------------------------|
D|-----2--------1--1-1-1---------------------------------------------------|
A|-3-3--------2----2-2-2---------------------------------------------------|
E|-------------------------------------------------------------------------|


This is just a basic outline..listen to the song to add in some slides to spice it up when needed

Tap to rate this tab
# A B C D E F G H I J K L M N O P Q R S T U V W X Y Z