Guitaretab - guitar tabs
Song name
# A B C D E F G H I J K L M N O P Q R S T U V W X Y Z

Alien Ant Farm - Flesh & Bone tab

Tabbed by: Chris
Artist: Alien Ant Farm
Song: Flesh and Bone
Album: Ant-thology
Tuning: Standard

Verses:
e----------------------------------
B---3-3-3-3-2-2-2-2----------
G---4-4-4-4-2-2-2-2----------
D---------------------------------
A---------------------------------
E---------------------------------

Other verse part:
e----------------------------------
B---------------------------------
G---------------------------------
D---2-2-4------------------------
A---0-0-2------------------------
E---------------------------------

Chorus: These are the chords
e------------------------------------
B------------------------------------
G---7--------------2--------------
D---7---7---8--4---2--------------
A---5---7---8--4---0--------------
E---5---5---6--2---0--------------

That one guitar part: (2:11)
e-----------------------------------------------------------------------------------
B----------------------------------------------------------------------------------
G----------------------------------------------------------------------------------
D--------------------------------------2--4--x-x-x-x-x--2--4-x-x-x-x-x-------
A----5/4-2------2----2-----------------0--2--x-x-x-x-x--0--2-x-x-x-x-x-------
E------------5------3----2-2-0-2-3-5---------x-x-x-x-x-------x-x-x-x-x-------

e---------------------------------------------------------------------------------
B---------------------------------------------------------------------------------
G--4-----------------------------------------------------------------------------
D--4--4---7--2--------------2--4--x-x-x-x-x---2--4--x-x-x-x-x-----------
A--2--4---7--2--------------0--2--x-x-x-x-x---0--2--x-x-x-x-x-----------
E-----2---5--0--0-2-3-5-----------x-x-x-x-x---------x-x-x-x-x-----------

e-----------------------------------------------------------------------------------
B----------------------------------------------------------------------------------
G-----------------------------------------------------------------------4--
D--------------------------------------2--4-x-x-x-x-x--2--4-x-x-x-x-x---4---
A----5/4-2------2----2-----------------0--2-x-x-x-x-x--0--2-x-x-x-x-x---2---
E------------5-----3----2-2-0-2-3-5---------x-x-x-x-x-------x-x-x-x-x-------

Harmonics:
e---------------------------
B----5----------------------
G------5--------------
D-----------------------
A--------5------------
E----------5--------
[ Tab from: http://www.guitaretab.com/a/alien-ant-farm/22254.html ]
Related for Flesh & Bone tab
Advertisement will be closed in 10 seconds