Song name
# A B C D E F G H I J K L M N O P Q R S T U V W X Y Z

Alien Ant Farm - Attitude tab

Alien Ant Farm 
 Attitude 
Tabber:Hellsflame@hotmail.com

5 string in standard tuning. 

h=hammer-on 
*=harmonic 

Intro 

G|--------------------------------------------------| 
D|--2-----4-----5-----7-----9-----5-----4-----------| 
A|--------------------------------------------5-----| 
E|0---0-2---2-3---3-5---5-7---7-3---3-2---2---------| 
B|------------------------------------------3---(3)-|  X2 

Don't play bracketed note second time just go to the bit below 

Then... 
G|--------------------------------| 
D|--------------------------------| 
A|--------------------------------| 
E|--------------------------------| 
B|-3--3-3--3--3-3--3--3-3--3--3-3-| 

Verse Part 1               Then Verse Part 2 
G|--------|                G|----------------------------| 
D|--------|                D|----------------------------| 
A|-2-0-0--|                A|-2-0-0----0--2-0-0----0---0-| 
E|--------|                E|-------0h1---------0h1-0h1--| 
B|--------|  X12           B|----------------------------|  X4 

Chorus 
G|----------------------------------------------------------------| 
D|-------------------------------------------------5--5-5--5--4---| 
A|-2--2-2--4--4-4--5--5-5--5--5-5--7--7-7--4--4-4---------------5-| 
E|----------------------------------------------------------------| 
B|----------------------------------------------------------------| 

G|----------------------------------------------------------------| 
D|-------------------------------------------------5--5-5--5--5-5-| 
A|-2--2-2--4--4-4--5--5-5--5--5-5--7--7-7--4--4-4-----------------| 
E|----------------------------------------------------------------| 
B|----------------------------------------------------------------| 

All that once for the 1st chorus. 
Break after chorus... 
G|-5*------5*--------5*------5*---| 
D|---5*----------------5*------5*-| 
A|--------------------------------| 
E|--------------------------------| 
B|--------------------------------| 

Then... 
Verse part 1 X8 
Verse part 2 X4 
Chorus       X2 

Then...Bridge (Like the intro but with a slight variation) 
G|-------------------------------------------------| 
D|---2-----3-----5-----7-----9-----5-----4---------| 
A|---------------------------------------------5---| 
E|-0---0-2---2-3---3-5---5-7---7-3---3-2---2-------| 
B|-------------------------------------------3---3-| X2 

Then... 
G|--------------------------------------------------| 
D|---4-----5-----7-----9-----11-----6-----4-----4---| 
A|--------------------------------------------------| 
E|-2---2-3---3-5---5-7---7-9----9-4---4-2---2-2---2-| 
B|--------------------------------------------------| 

G|-------------------------------------------| 
D|-------------------------------------------| 
A|-------------------------------------------| 
E|-0---0-2---2-3---3-5---5-7---7-3---3-2---2-| 
B|-------------------------------------------| 

All that once then... 
G|----------------------------------------------------------------| 
D|----------------------------------------------------------------| 
A|----------------------------------------------------------------| 
E|----------------------------------------------------------------| 
B|-3--3-3--3--3-3--3--3-3--3--3-3--3--3-3--3--3-3--3--3-3--3--3-3-| 

Then... 
Verse part 1 X2 
Verse part 2 X1 
Chorus       X3 

Outro 
G|----------------------------5*---| 
D|------------------------------5*-| 
A|-2-0-0--2-0-0--2-0-0--2-0-0------| 
E|---------------------------------| 
B|---------------------------------|
Tap to rate this tab
# A B C D E F G H I J K L M N O P Q R S T U V W X Y Z