Song name
# A B C D E F G H I J K L M N O P Q R S T U V W X Y Z

Alien Ant Farm - Movies tab





Verse 1

----------------------------------------------------------------------------
----------------------------------------------------------------------------
-8-/-9--9-9-9-9--x-x-x-x-x-x--8-/-9--9-9-9-9--x-x-x-x-x-x-------------------
-x---x--x-x-x-x--x-x-x-x-x-x--x---x--x-x-x-x--x-x-x-x-x-x-------------------
-6-/-7--7-7-7-7--x-x-x-x-x-x--6-/-7--7-7-7-7--x-x-x-x-x-x-------------------
----------------------------------------------------------------------------


----------------------------------------------------------------------------
----------------------------------------------------------------------------
-14-\-13-9-9-9--9-9-9--9-/-14-14-\-13-9-9-9--9-9-9--------------------------
--x----x-x-x-x--x-x-x--x----x--x----x-x-x-x--x-x-x--------------------------
-12-\-11-7-7-7--7-7-7--7-/-12-12-\-11-7-7-7--7-7-7--------------------------
----------------------------------------------------------------------------


----------------------------------------------------------------------------
----------------------------------------------------------------------------
-8-/-9--9-9-9-9--x-x-x-x-x-x--8-/-9--9-9-9-9--x-x-x-x-x-x-------------------
-x---x--x-x-x-x--x-x-x-x-x-x--x---x--x-x-x-x--x-x-x-x-x-x-------------------
-6-/-7--7-7-7-7--x-x-x-x-x-x--6-/-7--7-7-7-7--x-x-x-x-x-x-------------------
----------------------------------------------------------------------------


----------------------------------------------------------------------------
----------------------------------------------------------------------------
-14-\-13-9-9-9--9-9-9--9-/-14-14-\-13-9-9-9--9-9-9--------------------------
--x----x-x-x-x--x-x-x--x----x--x----x-x-x-x--x-x-x--------------------------
-12-\-11-7-7-7--7-7-7--7-/-12-12-\-11-7-7-7--7-7-7--------------------------
----------------------------------------------------------------------------


----------------------------------------------------------------------------
----------------------------------------------------------------------------
-8-/-9--9-9-9-9-x-x-x-x-x-x--8-/-9--9-9-9-9--x-x-x-x-x-x--------------------
-x---x--x-x-x-x-x-x-x-x-x-x--x---x--x-x-x-x--x-x-x-x-x-x--------------------
-6-/-7--7-7-7-7-x-x-x-x-x-x--6-/-7--7-7-7-7--x-x-x-x-x-x--------------------
----------------------------------------------------------------------------
                

----------------------------------------------------------------------------
----------------------------------------------------------------------------
-14---13-9-9-9--9-9-9-11--11-11-11-11br-------------------------------------
--x----x-x-x-x--x-x-x-x----x--x--x--x---------------------------------------
-12-\-11-7-7-7--7-7-7-9----9--9--9--9br-------------------------------------
----------------------------------------------------------------------------
         

Chorus

----------------------------------------------------------------------------
----------------------------------------------------------------------------
--8---9-9-8-/-9-9--8-/-9-8-/9-8-/-9-9-8-/-9-9--14-\-13----------------------
--x---x-x-x---x-x--x---x-x--x-x---x-x-x---x-x---x----x----------------------
--6-/-7-7-6-/-7-7--6-/-7-6-/7-6-/-7-7-6-/-7-7--12-\-11----------------------
----------------------------------------------------------------------------
      

----------------------------------------------------------------------------
----------------------------------------------------------------------------
-13--13-13-13-13--11-11-11-11-11br------------------------------------------
--x---x--x--x--x---x--x--x--x--x--------------------------------------------
-11--11-11-11-11---9--9--9--9--9br------------------------------------------
----------------------------------------------------------------------------
 

----------------------------------------------------------------------------
----------------------------------------------------------------------------
--8---9-9-8-/-9-9--8-/-9-8-/9-8-/-9-9-8-/-9-9--14-\-13----------------------
--x---x-x-x-/-x-x--x---x-x--x-x---x-x-x---x-x---x----x----------------------
--6-/-7-7-6-/-7-7--6-/-7-6-/7-6-/-7-7-6-/-7-7--12-\-11----------------------
----------------------------------------------------------------------------


----------------------------------------------------------------------------
----------------------------------------------------------------------------
-13--13-13-13-13--11-11-11-11-11br--9-9-11-11---9---------------------------
--x---x--x--x--x---x--x--x--x--x----x-x--x--x---x---------------------------
-11--11-11-11-11---9--9--9--9--9br--7-7--9--9---7---------------------------
----------------------------------------------------------------------------


Verse 2

----------------------------------------------------------------------------
----------------------------------------------------------------------------
-8-/-9--9-9-9-9--x-x-x-x-x-x--8-/-9--9-9-9-9--x-x-x-x-x-x-------------------
-x---x--x-x-x-x--x-x-x-x-x-x--x---x--x-x-x-x--x-x-x-x-x-x-------------------
-6-/-7--7-7-7-7--x-x-x-x-x-x--6-/-7--7-7-7-7--x-x-x-x-x-x-------------------
----------------------------------------------------------------------------


----------------------------------------------------------------------------
----------------------------------------------------------------------------
-14-\-13-9-9-9--9-9-9--9-/-14-14-\-13-9-9-9--9-9-9--------------------------
--x----x-x-x-x--x-x-x--x----x--x----x-x-x-x--x-x-x--------------------------
-12-\-11-7-7-7--7-7-7--7-/-12-12-\-11-7-7-7--7-7-7--------------------------
----------------------------------------------------------------------------


----------------------------------------------------------------------------
----------------------------------------------------------------------------
-8-/-9--9-9-9-9--x-x-x-x-x-x--8-/-9--9-9-9-9--x-x-x-x-x-x-------------------
-x---x--x-x-x-x--x-x-x-x-x-x--x---x--x-x-x-x--x-x-x-x-x-x-------------------
-6-/-7--7-7-7-7--x-x-x-x-x-x--6-/-7--7-7-7-7--x-x-x-x-x-x-------------------
----------------------------------------------------------------------------


----------------------------------------------------------------------------
----------------------------------------------------------------------------
-14---13-9-9-9--9-9-9-11--11-11-11-11br-------------------------------------
--x----x-x-x-x--x-x-x-x----x--x--x--x---------------------------------------
-12-\-11-7-7-7--7-7-7-9----9--9--9--9br-------------------------------------
----------------------------------------------------------------------------
                                                     

 
----------------------------------------------------------------------------
----------------------------------------------------------------------------
----------------------------------------------------------------------------
-11-11-11-11-11-14-14-14-9-9-9-9-9-11-11-11-6-6-6-6-6-7-7-7-9-9-9-9-9-2-2---
-11-11-11-11-11-14-14-14-9-9-9-9-9-11-11-11-6-6-6-6-6-7-7-7-9-9-9-9-9-2-2---
-9--9--9--9--9--12-12-12-7-7-7-7-7-9--9--9--4-4-4-4-4-5-5-5-7-7-7-7-7-0-0---


----------------------------------------------------------------------------
----------------------------------------------------------------------------
-----------------------------------------------------------------11-11-11-11
-2----11-11-11-11-11-14-14-14-9-9-9-9-9-11-11-11-6-6-6-6-6-7-7-7--x--x--x--x
-2----11-11-11-11-11-14-14-14-9-9-9-9-9-11-11-11-6-6-6-6-6-7-7-7--9--9--9--9
-0----9--9--9--9--9--12-12-12-7-7-7-7-7-9--9--9--4-4-4-4-4-5-5-5------------
 

----------------------------------------------------------------------------
----------------------------------------------------------------------------
-11-11----------------------------------------------------------------------
--x--x----------------------------------------------------------------------
--9--9br--------------------------------------------------------------------
----------------------------------------------------------------------------
      
                                                      
Chorus II

----------------------------------------------------------------------------
----------------------------------------------------------------------------
--8---9-9-8-/-9-9--8-/-9-8-/9-8-/-9-9-8-/-9-9--14-\-13----------------------
--x---x-x-x---x-x--x---x-x--x-x---x-x-x---x-x---x----x----------------------
--6-/-7-7-6-/-7-7--6-/-7-6-/7-6-/-7-7-6-/-7-7--12-\-11----------------------
----------------------------------------------------------------------------

----------------------------------------------------------------------------
----------------------------------------------------------------------------
-13--13-13-13-13--11-11-11-11-11br------------------------------------------
--x---x--x--x--x---x--x--x--x--x--------------------------------------------
-11--11-11-11-11---9--9--9--9--9br------------------------------------------
----------------------------------------------------------------------------


----------------------------------------------------------------------------
----------------------------------------------------------------------------
--8---9-9-8-/-9-9--8-/-9-8-/9-8-/-9-9-8-/-9-9--14-\-13----------------------
--x---x-x-x-/-x-x--x---x-x--x-x---x-x-x---x-x---x----x----------------------
--6-/-7-7-6-/-7-7--6-/-7-6-/7-6-/-7-7-6-/-7-7--12-\-11----------------------
----------------------------------------------------------------------------


----------------------------------------------------------------------------
----------------------------------------------------------------------------
-13--13-13-13-13--11-11-11-11-11br------------------------------------------
--x---x--x--x--x---x--x--x--x--x--------------------------------------------
-11--11-11-11-11---9--9--9--9--9br------------------------------------------
----------------------------------------------------------------------------
          

----------------------------------------------------------------------------
----------------------------------------------------------------------------
--8---9-9-8-/-9-9--8-/-9-8-/9-8-/-9-9-8-/-9-9--14-\-13----------------------
--x---x-x-x---x-x--x---x-x--x-x---x-x-x---x-x---x----x----------------------
--6-/-7-7-6-/-7-7--6-/-7-6-/7-6-/-7-7-6-/-7-7--12-\-11----------------------
----------------------------------------------------------------------------


----------------------------------------------------------------------------
----------------------------------------------------------------------------
-13--13-13-13-13--11-11-11-11-11br--9-9-11-11---9---------------------------
--x---x--x--x--x---x--x--x--x--x----x-x--x--x---x---------------------------
-11--11-11-11-11---9--9--9--9--9br--7-7--9--9---7---------------------------
----------------------------------------------------------------------------
 scream

Bridge

[Guitar Break] 

----------------------------------------------------------------------------
----------------------------------------------------------------------------
----------------------------------------------------------------------------
-11-11-11-11-11-14-14-14-9-9-9-9-9-11-11-11-6-6-6-6-6-7-7-7-9-9-9-9-9-2-2---
-11-11-11-11-11-14-14-14-9-9-9-9-9-11-11-11-6-6-6-6-6-7-7-7-9-9-9-9-9-2-2---
-9--9--9--9--9--12-12-12-7-7-7-7-7-9--9--9--4-4-4-4-4-5-5-5-7-7-7-7-7-0-0---


 PM.....................................................................v
----------------------------------------------------------------------------
----------------------------------------------------------------------------
----------------------------------------------------------------------------
-11-11-11-11-11-14-14-14-9-9-9-9-9-11-11-11-6-6-6-6-6-7-7-7-9-9-9-9-9-2-2---
-11-11-11-11-11-14-14-14-9-9-9-9-9-11-11-11-6-6-6-6-6-7-7-7-9-9-9-9-9-2-2---
-9--9--9--9--9--12-12-12-7-7-7-7-7-9--9--9--4-4-4-4-4-5-5-5-7-7-7-7-7-0-0---


----------------------------------------------------------------------------
----------------------------------------------------------------------------
--------------------------------------------------11-11-11--11--11br--------
--11-11-11---------11-11-11---------11-11-11------x--x--x---x---x-----------
--11-11-11---------11-11-11---------11-11-11------9--9--9---9---9br---------
---9--9--9----------9--9--9----------9--9--9--------------------------------


Chorus III

----------------------------------------------------------------------------
----------------------------------------------------------------------------
--8---9-9-8-/-9-9--8-/-9-8-/9-8-/-9-9-8-/-9-9--14-\-13----------------------
--x---x-x-x---x-x--x---x-x--x-x---x-x-x---x-x---x----x----------------------
--6-/-7-7-6-/-7-7--6-/-7-6-/7-6-/-7-7-6-/-7-7--12-\-11----------------------
----------------------------------------------------------------------------


----------------------------------------------------------------------------
----------------------------------------------------------------------------
-13--13-13-13-13--11-11-11-11-11br------------------------------------------
--x---x--x--x--x---x--x--x--x--x--------------------------------------------
-11--11-11-11-11---9--9--9--9--9br------------------------------------------
----------------------------------------------------------------------------


----------------------------------------------------------------------------
----------------------------------------------------------------------------
--8---9-9-8-/-9-9--8-/-9-8-/9-8-/-9-9-8-/-9-9--14-\-13----------------------
--x---x-x-x-/-x-x--x---x-x--x-x---x-x-x---x-x---x----x----------------------
--6-/-7-7-6-/-7-7--6-/-7-6-/7-6-/-7-7-6-/-7-7--12-\-11----------------------
----------------------------------------------------------------------------


----------------------------------------------------------------------------
----------------------------------------------------------------------------
-13--13-13-13-13--11-11-11-11-11br------------------------------------------
--x---x--x--x--x---x--x--x--x--x--------------------------------------------
-11--11-11-11-11---9--9--9--9--9br------------------------------------------
----------------------------------------------------------------------------
          

----------------------------------------------------------------------------
----------------------------------------------------------------------------
--8---9-9-8-/-9-9--8-/-9-8-/9-8-/-9-9-8-/-9-9--14-\-13----------------------
--x---x-x-x---x-x--x---x-x--x-x---x-x-x---x-x---x----x----------------------
--6-/-7-7-6-/-7-7--6-/-7-6-/7-6-/-7-7-6-/-7-7--12-\-11----------------------
----------------------------------------------------------------------------

----------------------------------------------------------------------------
----------------------------------------------------------------------------
-13--13-13-13-13--11-11-11-11-11br--9-9-11-11---9---------------------------
--x---x--x--x--x---x--x--x--x--x----x-x--x--x---x---------------------------
-11--11-11-11-11---9--9--9--9--9br--7-7--9--9---7---------------------------
----------------------------------------------------------------------------      
Tap to rate this tab
# A B C D E F G H I J K L M N O P Q R S T U V W X Y Z