Song name
# A B C D E F G H I J K L M N O P Q R S T U V W X Y Z

Alin Coen - Andere Haende tab

-------------------------------------------------------------------------------
			     Andere Hände - Alin Coen
-------------------------------------------------------------------------------
Tabbed by: Franzi20
E-mail:

Falls Ihr Fragen habt, könnt Ihr mich einfach anschreiben :)

Tuning: Standart

Intro + Verse

1. Ich reiche dich
2. Ich habs dir                

e|--9-----9-----9------9-----------------------------------------------------|
B|-----------------------------9-------9---------9--------9------------------|
G|----9-----9-----9------9---------------------------------------------------|
D|-------7----7------7------7-----9-------9--------9---------9---------------|
A|-----------------------------------7-------7--------7---------7------------|
E|---------------------------------------------------------------------------|
1. weiter, weil ich selbst an mir scheiter. Wünsch dir ein besseres
2. geschrieben ich werde dich immer lieben.     Mir sind die Hände ge-

e|---------------------------------------------------------------------------|
B|--5--------5-------5-------5--------7---------7--------7---------7---------|
G|---------------------------------------------------------------------------|
D|----6---------6-------6-------6--------7---------7--------7---------7------|
A|-------4---------4-------4--------4-------5---------5--------5----------5--|
E|---------------------------------------------------------------------------|
 1. Leben,       ich kanns dir nicht geben.          Ich wollt es       ver-
 2. bunden         noch keinen Ausweg gefunden. 

e|--9-----9--------9---------9-----------------------------------------------|
B|-------------------------------------9--------9---------9---------9--------|
G|----9------9--------9---------9--------------------------------------------|
D|-------7------7--------7---------7------9--------9---------9---------9-----|
A|-------------------------------------------7--------7---------7---------7--|
E|---------------------------------------------------------------------------|
 1. meiden      ich musste mich so entscheiden                         Deine
 2. Ich                        bitte dich  

e|---------------------------------------------------------------------------|
B|--10--------10--------9-------9--------7--------7--------7---------7-------|
G|---------------------------------------------------------------------------|
D|------11--------11-------9-------9--------7--------7--------7---------7----|
A|----------9---------9-------7-------7--------5--------5---------5--------5-|
E|---------------------------------------------------------------------------|
 1. Zukunft soll       besser sein als   meine.                        Es ist
 2. mir                zu           verzeihen.  Ich   wünschte   es  

e|---------------------------------------------------------------------------|
B|--10--------10--------9--------9--------7--------7--------7---------7------|
G|---------------------------------------------------------------------------|
D|------11--------11-------9-------9--------7--------7--------7---------7----|
A|----------9--------9--------7-------7--------5-------5----------5--------5-|
E|---------------------------------------------------------------------------|
 1. besser   so      denn ich habe       keine.
 2. könnte            anders               sein,   du kamst       viel zu


Chours:

e||------------------------------------------5-------------5-------------------|
B||---------5---------------6----------6--------6-----6-------6----------------|
G||.--------6----6----------5----6---4---4--------4-4---4-------4--------------|
D||.----6-------6------6--------6----------------------------------------------|
A||---4---4----------4---4-----------------------------------------------------|
E||----------------------------------------------------------------------------|
    früh                           für mich.                     Ich
    nügt                        dir nicht.             Ich bin 

e|------------------------------------------4------------4-------------------||
B|---------3----------------3------------------------------------------------||
G|---------4-----4----------4----4-----4------4-----4------4----------------.||
D|----4-------4-------4--------4-----2---2------2-2---2------2--------------.||
A|--2---2-----------2---2----------------------------------------------------||
E|---------------------------------------------------------------------------||
   geb dich in    andere          Hände,             was ich hab ge 
    kraftlos,               denn am Ende             ist keiner

e|---------------------------------------------------------------------------|
B|---------6-------------6---------------------------------------------3-----|
G|---------5----6--------5----6----------2-------------2---------------4-----|
D|----6-------6-----6-------6------------4----4--------4----4-----4----------|
A|--4---4---------4---4-------------4-------4-----4-------4-----2---2--------|
E|--------------------------------2---2---------2---2------------------------|
   da                     der uns trägt             ich hab dich in ein

e|---------9-------9------9------9-------------------------------------------|
B|---7----------------------------------9--------9------9------9-------------|
G|-----------9-------9------9------9-----------------------------------------|
D|---7----------7------7------7------7-----9-------9------9------9-----------|
A|---5----------------------------------------7------7------7------7---------|
E|---------------------------------------------------------------------------|
   besseres Leben gelegt

e|---------------------------------------------------------------------------|
B|--10--------10-------9-------9------7-----7-------7-------7----------------|
G|---------------------------------------------------------------------------|
D|------11-------11-------9------9------7-----7-------7-------7--------------|
A|---------9--------9--------7-----7------5------5-------5-------5-----------|
E|---------------------------------------------------------------------------|

e|---------------------------------------------|
B|--10---------10--------9------9--------7-----|
G|---------------------------------------------|
D|------11--------11-------9------9------7-----|
A|---------9---------9-------7------7----5-----|
E|---------------------------------------------|
Tap to rate this tab
# A B C D E F G H I J K L M N O P Q R S T U V W X Y Z