Guitaretab - guitar tabs
Song name
# A B C D E F G H I J K L M N O P Q R S T U V W X Y Z

Alkaline Trio - Cringe tab

I saw that the middle part in cringe was tabbed incorrectly so i watched the dvd and 
is how Skiba plays the song on it.

LE MAISTRE

Intro

e]-------------------------------------|
B]-------------------------------------|
G]----------------10-10-10-10-10-------|      x2
D]-10-10-10-10-10-10-10-10-10-10-------|
A]-10-10-10-10-10--7--7--8--8--8-------|
E]--8--8--8--8--8----------------------|

Verse

e]-------------------------------------------------|
B]-------------------------------------------------|
G]----------------------------------10-10-10-10-10-|
D]-10-10-10-10-10-10-10-10-10-10-10-10-10-10-10-10-|
A]-10-10-10-10-10-10-10-10-10-10-10--7--7--8--8--8-|
E]--8--8--8--8--8--8--8--8--8--8--8----------------|

e]------------------------------------------------|
B]------------------------------------------------|
G]------------------------------------------------|
D]-10-10-10-10--9--9-10-10-10--9-10-12-10--9------|
A]--0--0--0--0--0--0--0--0--0--0--0--0--0--0------|
E]------------------------------------------------|

Intro

Verse

Pre-Chorus

e]------------------------------------------------|
B]------------------------------------------------|
G]------------------------------------------------|
D]-10-10-10-10-10-10-10-10-12-12-12-12------------|
A]--x--x--x--x--x--x--x--x--x--x--x--x------------|
E]--8--8--8--8--8--8--8--8-10-10-10-10------------|

Chorus

e]------------------------------------------------|
B]------------------------------------------------|
G]--2~---------------2~---------------------------|
D]--2~-2~-3~-5~------2~-2~-3~-5-5-5-5-5-----------|
A]--0~-2~-3~-5~------0~-2~-3~-5-5-5-5-5-----------|
E]-----0~-1~-3~---------0~-1~-3-3-3-3-3-----------|

Intro x 2

Verse x 2 but during the second verse dampen the C power chord every now and then - 
to the song to see what i mean.

Pre-Chorus then Pickslide

Bridge
[ Tab from: http://www.guitaretab.com/a/alkaline-trio/22153.html ]
e]-------------------------------------------------|
B]-------------------------------------------------|
G]--5--5--5--5--5--5--5--5--2--2--2--2--2--2--2--2-|
D]--5--5--5--5--5--5--5--5--2--2--2--2--2--2--2--2-|
A]--3--3--3--3--3--3--3--3--0--0--0--0--0--0--0--0-|
E]-------------------------------------------------|

e]--------------------------------------------------------|
B]--------------------------------------------------------|
G]-12-12-12-12-12-12-12-12-10-10-10-10--9--9--7--7--------|
D]--x--x--x--x--x--x--x--x--x--x--x--x--x--x--x--x    x 2-|
A]-10-10-10-10-10-10-10-10--8--8--8--8--7--7--5--5--------|
E]--------------------------------------------------------|


e]-----------------------------------|
B]-----------------------------------|
G]--5--5--5--5--5--5--4--4-----------|
D]--x--x--x--x--x--x--x--x-----------|          x2
A]--3--3--3--3--3--3--2--2-----------|
E]-----------------------------------|

e]--------------------          ------------------|
B]--------------------          ------------------|
G]--5--5--5--5--5--5--          5--5--5--5--5--5--|
D]--x--x--x--x--x--x--   Pause  x--x--x--x--x--x--|           x2
A]--3--3--3--3--3--3--          3--3--3--3--3--3--|
E]--------------------          ------------------|

e]------------------------------------------------|
B]------------------------------------------------|
G]------------------------------------------------|
D]-10-10-10-10--9--9-10-10-10--9-10-12-10--9------|
A]--0--0--0--0--0--0--0--0--0--0--0--0--0--0------|
E]------------------------------------------------|

e]------------------------------------------------|
B]------------------------------------------------|
G]------------------------------------------------|
D]--3--3--3--3--3--3--3--3--5---------------------|
A]--3--3--3--3--3--3--3--3--5---------------------|
E]--1--1--1--1--1--1--1--1--3---------------------|

PLEASE RATE THIS AS IT@S MY FIRST TAB - I THOUGHT I WOULD START OFF WITH THE BEST SONG 
THE WORLD AND THEN CARRY ON AND FINISH OFF WITH A SONG BY KUDU.
Related for Cringe tab
×
Cringe