Guitaretab - guitar tabs
Song name
# A B C D E F G H I J K L M N O P Q R S T U V W X Y Z

All-american Rejects - Swing Swing tab

-----------------------------------------------------------------------------------------
			Swing Swing  All-American Rejects
-----------------------------------------------------------------------------------------

I've fixed it up a bit but I don't think the solo is perfect.


Tabbed by: TJS/George99936            / = Slide up
                                      \ = Slide down
Tuning: EADGBe                       PM = Palm mute

INTRO A: Guitar 1
e|--3-3--3---3-3--3---3-3--3---3-3--3----|
B|--3-3--3---3-3--3---3-3--3---3-3--3----| 2x
G|--0-0--0---2-2--2---0-0--0---0-0--0----|
D|--0-0--0---0-0--0---2-2--2---2-2--2----|
A|--2-2--2---0-0--0---2-2--2---3-3--3----|
E|--3-3--3---2-2--2---0-0--0-------------|

INTRO A: Guitar 2
e|---------------------|
B|---------------------|
G|---------------------|
D|----------------12\--|
A|----------------12\--|
E|----------------10\--|

INTRO B: Guitars 1
e|-3-------2-------3-------3--------|
B|-3-------3-------3-------3--------| 2x
G|-0-(x8)--2-(x8)--0-(x8)--0-(x8)---|
D|-0-------0-------2-------2--------|
A|-2---------------2-------3--------|
E|-3--------------------------------|

INTRO B: Guitars 2
e|-3-------3-------3-------3--------|
B|-3-------3-------3-------3--------| 2x
G|-0-(x8)--2-(x8)--0-(x8)--0-(x8)---|
D|-0-------0-------2-------2--------|
A|-2-------0-------2-------3--------|
E|-3-------2------------------------|


VERSE: Guitar 1
e|--3-3--3---3-3--3---3-3--3---3-3--3---|
B|--3-3--3---3-3--3---3-3--3---3-3--3---|2x
G|--------------------------------------|
D|--------------------------------------|
A|--------------------------------------|
E|--------------------------------------|

VERSE: Guitar 2
e|-3--------3-------3--------|
B|-3--------3-------3--------| 2x
G|-0-(x16)--0-(x8)--0-(x8)---|
D|-0--------2-------2--------|
A|-2--------2-------3--------|
E|-3-------------------------|
PM .        .                        .


PRE-CHORUS: Guitars 1 and 2
e|-3--------3-------3--------|
B|-3--------3-------3--------| 2x
G|-0-(x16)--0-(x8)--0-(x8)---|
D|-0--------2-------2--------|
A|-2--------2-------3--------|
E|-3-------------------------|
PM .        .                        .


  hold  hold
e|--0----0-----0-0-2----|
B|--0----1-----1-1-3----|
G|--0----0-----0-0-2----|
D|--2----2-----2-2-0----|
A|--2----3-----3-3------|
E|--0-------------------|

CHORUS: Guitars 1
e|-3-------2-------3-------3--------|
B|-3-------3-------3-------3--------| 2x
G|-0-(x8)--2-(x8)--0-(x8)--0-(x8)---|
D|-0-------0-------2-------2--------|
A|-2---------------2-------3--------|
E|-3--------------------------------|


CHORUS: Guitar 2
e|-3-------3-------3-------3--------|
B|-3-------3-------3-------3--------| 2x
G|-0-(x8)--2-(x8)--0-(x8)--0-(x8)---|
D|-0-------0-------2-------2--------|
A|-2-------0-------2-------3--------|
E|-3-------2------------------------|


VERSE: Guitar 1
e|--3-3--3---3-3--3---3-3--3---3-3--3---|
B|--3-3--3---3-3--3---3-3--3---3-3--3---|2x
G|--------------------------------------|
D|--------------------------------------|
A|--------------------------------------|
E|--------------------------------------|


VERSE: Guitar 2
e|-3--------3-------3--------|
B|-3--------3-------3--------| 2x
G|-0-(x16)--0-(x8)--0-(x8)---|
D|-0--------2-------2--------|
A|-2--------2-------3--------|
E|-3-------------------------|
PM .        .                        .


PRE-CHORUS: Guitars 1 and 2
e|-3--------3-------3--------|
B|-3--------3-------3--------| 2x
G|-0-(x16)--0-(x8)--0-(x8)---|
D|-0--------2-------2--------|
A|-2--------2-------3--------|
E|-3-------------------------|
PM .        .                        .


  hold  hold
e|--0----0-----0-0-2----|
B|--0----1-----1-1-3----|
G|--0----0-----0-0-2----|
D|--2----2-----2-2-0----|
A|--2----3-----3-3------|
E|--0-------------------|



CHORUS: Guitars 1
e|-3-------2-------3-------3--------|
B|-3-------3-------3-------3--------| 2x
G|-0-(x8)--2-(x8)--0-(x8)--0-(x8)---|
D|-0-------0-------2-------2--------|
A|-2---------------2-------3--------|
E|-3--------------------------------|


CHORUS: Guitar 2
e|-3-------3-------3-------3--------|
B|-3-------3-------3-------3--------| 2x
G|-0-(x8)--2-(x8)--0-(x8)--0-(x8)---|
D|-0-------0-------2-------2--------|
A|-2-------0-------2-------3--------|
E|-3-------2------------------------|

[ Tab from: http://www.guitaretab.com/a/all-american-rejects/25310.html ]
SOLO: Guitar 1
e|-----------------------------------------------------15---12h14--12------------------|
B|-8/15-15-15-15-15-15--13-12-12-12-12-12-12-12-13-------------------------------------|
G|-------------------------------------------------12----12----------------------------|
D|-------------------------------------------------------------------------------------|
A|-------------------------------------------------------------------------------------|
E|-------------------------------------------------------------------------------------|

e|-----15-15-15-15-15-15----------15-15-15-15-15-15--------15---------------------------|
B|-12/-15-15-15-15-15-15-13-12-12-12-12-12-12-12-13-12-----12-----10-10-10-12-12-12-13\-|
G|-----------------------------------------------------12-----12------------------------|
D|--------------------------------------------------------------------------------------|
A|--------------------------------------------------------------------------------------|
D|--------------------------------------------------------------------------------------|


SOLO: Guitar 2
e|-3-------3-------3-------3--------|
B|-3-------3-------3-------3--------| 2x
G|-0-(x8)--2-(x8)--0-(x8)--0-(x8)---|
D|-0-------0-------2-------2--------|
A|-2-------0-------2-------3--------|
E|-3-------2------------------------|


BRIDGE: Guitar 1 plays the high part. Guitar 2 plays the low part.
e|----0-0-----------------0-0-3-3-2-2----0--7-7-5-5-----3-3--------|
B|----0-0--------------p--0-0--------3-3------------7-7------------|
G|----0-0--------7-7---a--0-0--------------7-7---------------------|
D|----2-2--------7-7---u--2-2--------------7-7---------------------|
A|----2-2--------5-5---s--2-2--------------5-5---------------------|
E|----0-0--------------e--0-0--------------------------------------|


Guitars 1 and 2
e|---0-0-0-0-0-0-0-0-0-0-0-0-0-0-0-2--|
B|---1-1-1-1-1-1-1-1-1-1-1-1-1-1-1-3--|
G|---0-0-0-0-0-0-0-0-0-0-0-0-0-0-0-2--|
D|---2-2-2-2-2-2-2-2-2-2-2-2-2-2-2-0--|
A|---3-3-3-3-3-3-3-3-3-3-3-3-3-3-3----|
E|------------------------------------|


CHORUS: Guitars 1
e|-3-------2-------3-------3--------|
B|-3-------3-------3-------3--------| 2x
G|-0-(x8)--2-(x8)--0-(x8)--0-(x8)---|
D|-0-------0-------2-------2--------|
A|-2---------------2-------3--------|
E|-3--------------------------------|


CHORUS: Guitar 2
e|-3-------3-------3-------3--------|
B|-3-------3-------3-------3--------| 2x
G|-0-(x8)--2-(x8)--0-(x8)--0-(x8)---|
D|-0-------0-------2-------2--------|
A|-2-------0-------2-------3--------|
E|-3-------2------------------------|


CHORUS: Guitar 1
e|-----------------------------------------------------15---12h14--12------------------|
B|-8/15-15-15-15-15-15--13-12-12-12-12-12-12-12-13-------------------------------------|
G|-------------------------------------------------12----12----------------------------|
D|-------------------------------------------------------------------------------------|
A|-------------------------------------------------------------------------------------|
E|-------------------------------------------------------------------------------------|

e|-----15-15-15-15-15-15----------15-15-15-15-15-15--------15---------------------------|
B|-12/-15-15-15-15-15-15-13-12-12-12-12-12-12-12-13-12-----12-----10-10-10-12-12-12-13\-|
G|-----------------------------------------------------12-----12------------------------|
D|--------------------------------------------------------------------------------------|
A|--------------------------------------------------------------------------------------|
D|--------------------------------------------------------------------------------------|

CHORUS: Guitar 2
e|-3-------3-------3-------3--------|
B|-3-------3-------3-------3--------| 2x
G|-0-(x8)--2-(x8)--0-(x8)--0-(x8)---|
D|-0-------0-------2-------2--------|
A|-2-------0-------2-------3--------|
E|-3-------2------------------------|

OUTRO: Guitar 1                   Fades out
e|--7--8---12-10----7--8---12-10--|
B|--------------------------------|
G|--------------------------------| 4x
D|--------------------------------|
A|--------------------------------|
E|--------------------------------|


OUTRO: Guitar 2
e|-3-------3-------3-------3--------|
B|-3-------3-------3-------3--------| 4x
G|-0-(x8)--2-(x8)--0-(x8)--0-(x8)---|
D|-0-------0-------2-------2--------|
A|-2-------0-------2-------3--------|
E|-3-------2------------------------|
Related for Swing Swing tab