Song name
# A B C D E F G H I J K L M N O P Q R S T U V W X Y Z

All That Remains - Passion tab

yo, it's me again with my second TAB... it's a vocal wich means this is the voice of
I put the parts into numbers to organize it a bit. Oh yeah, remember to correct me when 
wrong:)

1.
e----------------------------------------|
B-----------------------------9-12-------|
G---9-9-11-9-8-----8-9--8-9--8-----8-9---| (3 times)
D--------------11------------------------|
A----------------------------------------|
E----------------------------------------|

2.
e-------------------------------------------|
B----10-9----9-------9-12-------------------|
G---9----9-11-----9-9----8-(8)--/9----/13---|
D-------------------------------------------|
A-------------------------------------------|
E-------------------------------------------|

3.
e-----------------------------------------|
B---7-7-7-9------10-9--------10-9---------|
G---------------9----9-11---9----9-11-----|
D------------------------------------11---|
A-----------------------------------------|
E-----------------------------------------|

4.
e---------------------------------------------|
B----10-9----9---------9-12-------------------|
G---9----9-11-----9-9-9----8-(8)--/9----/13---|
D---------------------------------------------|
A---------------------------------------------|
E---------------------------------------------|

5.
e-----------------------------------------|
B---7-7-7-9------10-9--------10-9---------|
G---------------9----9-11---9----9-11-----|
D------------------------------------11---|
A-----------------------------------------|
E-----------------------------------------|

6.
e---------------------------------------|
B-----------9-----------10----------9---|
G-----9-11----9--11-9-----9-------------|
D---11---------------------11---9-11----|
A---------------------------------------|
E---------------------------------------|

7.
e--------------------------------------------------|
B----10-9----9-10-9---------9-12-------------------|
G---9----9-11----------9-9-9----8-(8)--/9----/13---|
D--------------------------------------------------|
A--------------------------------------------------|
E--------------------------------------------------|

8.
e-----------------------------------------|
B---7-7-7-9------10-9--------10-9---------|
G---------------9----9-11---9----9-11-----|
D------------------------------------11---|
A-----------------------------------------|
E-----------------------------------------|

9.
e----------------------------------------|
B----10-9----9----9-12-------------------|
G---9----9-11----9----8-(8)--/9----/13---|
D----------------------------------------|
A----------------------------------------|
E----------------------------------------|

9.
e-----------------------------------------|
B---7-7-7-9------10-9--------10-9---------|
G---------------9----9-11---9----9-11-----|
D------------------------------------11---|
A-----------------------------------------|
E-----------------------------------------|

10.
e------------------------------------|
B-------------9----------------------|
G-----9-11-------9-----9-11-----9----|
D---11---------11----11-------11-9---|
A------------------------------------|
E------------------------------------|

11.
e-------------------|
B---10----------9---|
G-----9-------------|
D------11---9-11----|
A-------------------|
E-------------------|

12.
e---------------------------------------------|
B----10-9----9---------9-12-------------------|
G---9----9-11-----9-9-9----8-(8)--/9----/13---|
D---------------------------------------------|
A---------------------------------------------|
E---------------------------------------------|

13.
e-----------------------------------------|
B---7-7-7-9------10-9--------10-9---------|
G---------------9----9-11---9----9-11-----|
D------------------------------------11---|
A-----------------------------------------|
E-----------------------------------------|

14.
e---------------------------------------------|
B----10-9----9---------9-12-------------------|
G---9----9-11-----9-9-9----8-(8)--/9----/13---|
D---------------------------------------------|
A---------------------------------------------|
E---------------------------------------------|

15.
e-----------------------------------------|
B---7-7-7-9------10-9--------10-9---------|
G---------------9----9-11---9----9-11-----|
D------------------------------------11---|
A-----------------------------------------|
E-----------------------------------------|

16. (after a few seconds)
e-----------------------------|
B-----------------------------|
G---12-15-15-17-19-17-16-14---|
D-----------------------------|
A-----------------------------|
E-----------------------------|

17.
e-------------------------|
B------9-12----------12---| Let it fade out...
G---9-9----8-(8)-9--------|
D-------------------------|
A-------------------------|
E-------------------------|

18.
e----------------------------------------|
B-----------------------------9-12-------|
G---9-9-11-9-8-----8-9--8-9--8-----8-9---| (3 times)
D--------------11------------------------|
A----------------------------------------|
E----------------------------------------|

19.
e------------------|
B------------------|
G---9-9-11-9-8-9---|
D------------------|
A------------------|
E------------------|

THE END.
Tap to rate this tab
 
# A B C D E F G H I J K L M N O P Q R S T U V W X Y Z