Song name
# A B C D E F G H I J K L M N O P Q R S T U V W X Y Z

All Time Low - The Next Best Thing tab

Intro:

Guitar 1: NOTE:(Listen to the song for the strumming pattern those are basically the
chords for guitar 1 which is the rythm guitar, the right part of guitar 1 plays with
guitar 2)


E|----------------------------------------------|
B|----------------------------------------------|
G|----------------------------------------------|
D|---9-----------6-----4------2----6----7----9--|
A|---7-----7-----4-----2------2----6----7----9--|
E|---------5------------------0----4----5----7--|


Guitar 2: (Listen to the song for the strumming pattern)

E|-----------------------------------------|
B|-----------------------------------------|
G|---9---------11---------13--------14-----|
D|-----x4---------x4---------x4--------x4--|
A|---7----------9---------11--------12-----|
E|-----------------------------------------|


Tapping Part:

Guitar 1: (Plays With Guitar 2)

E|------------------------|
B|------------------------|
G|------------------------|
D|---9-----------6-----4--|
A|---7-----7-----4-----2--|
E|---------5--------------|


Guitar 2:

E|---4-5-7-5-x4-----2-4-5-4-x2----4-7-5-4-5-4-2-4--------|
B|-------------------------------------------------------|
G|-------------------------------------------------------|
E|---4-5-7-5-x4-----2-4-5-4-x2----4-7-5-4-5-4-0----------|(Sliding)
B|-------------------------------------------------------|
G|-------------------------------------------------------|


Im Looking Forward For Another Day Without You!

Guitar 1: (Plays with guitar 2)

E|------------------------------------------|
B|------------------------------------------|
G|------------------------------------------|
D|----2----6----7----9----------------------|
A|----2----6----7----9----------------------|
E|----0----4----5----7----------------------|

Guitar 2:



E|------------------------------------------|
B|------------------------------------------|
G|---11--------9--------8-------9-----------|
D|-------x4-------x6------x4------x6--------|
A|---9---------7--------6-------7-----------|
E|------------------------------------------|

Guitar 1:


E|-----------------|
B|-----------------|
G|-----------------|
D|-----2-----------|
A|-----2-----------|
E|-----0-----------|


The Way I See It You Could Never Do What I Do!!



Guitar 1: (Plays with guitar 2)

E|----------------------------------------|
B|----------------------------------------|
G|----------------------------------------|
D|----2----6----7----9--------------------|
A|----2----6----7----9--------------------|
E|----0----4----5----7--------------------|

Guitar 2:



E|----------------------------------------------|
B|----------------------------------------------|
G|----------------------------------------------|
D|----8-------9-------11------9-----------------|
A|------x4------x6------x4------x6--------------|
E|----6-------7-------9-------7-----------------|


Guitar 1:

E|-----------------|
B|-----------------|
G|-----------------|
D|-----2-----------|
A|-----2-----------|
E|-----0-----------|



I Welcomed You With Open Arms, You Drove The Knife Right Through My Heart!


Guitar 1: (Plays with guitar 2)

E|-----------------------------------------|
B|-----------------------------------------|
G|-----------------------------------------|
D|----2----6----7----9---------------------|
A|----2----6----7----9---------------------|
E|----0----4----5----7---------------------|

Guitar 2:



E|-----------------------------------------|
B|-----------------------------------------|
G|---11--------9--------8-------9----------|
D|-------x4-------x6------x4------x6-------|
A|---9---------7--------6-------7----------|
E|-----------------------------------------|


Guitar 1:


E|-----------------|
B|-----------------|
G|-----------------|
D|-----2-----------|
A|-----2-----------|
E|-----0-----------|

So Know Im Crossing Out The Pain Thats Been Tearing Us Apart!





Guitar 1: (Plays with guitar 2)

E|------------------------------------------|
B|------------------------------------------|
G|------------------------------------------|
D|----2----6----7----9----------------------|
A|----2----6----7----9----------------------|
E|----0----4----5----7----------------------|

Guitar 2:



E|------------------------------------------|
B|------------------------------------------|
G|------------------------------------------|
D|----8-------9-------11------9-------------|
A|------x4------x6------x4------x6----------|
E|----6-------7-------9-------7-------------|


Guitar 1:

E|-----------------|
B|-----------------|
G|-----------------|
D|-----2-----------|
A|-----2-----------|
E|-----0-----------|


___________________________________________________________________________


You Were Out Of Sight Now Your Out Of Line! (play guitar 1 while hes saying this phrase)

Guitar 1: (plays first then guitar 2)
E|-----------------------------------------------|
B|-----------------------------------------------|
G|-----------------------------------------------|
D|----9------------4-----------------------------|
A|----7-x4---------2-x4--------------------------|
E|-----------------------------------------------|



Guitar 2:

E|----------------------------------------------|
B|----------------------------------------------|
G|---4-------6------8-------9-------------------|
D|-----x4------x6-----x4------x4----------------|
A|---2-------4------6-------7-------------------|
E|----------------------------------------------|


Went To Your Head Now Your Left Behind! (play guitar 1 while he's saying the phrase)



Guitar 1: (plays first then guitar 2)
E|----------------------------------------------|
B|----------------------------------------------|
G|----------------------------------------------|
D|----9------------4----------------------------|
A|----7-x4---------2-x4-------------------------|
E|----------------------------------------------|


Guitar 2:

E|----------------------------------------------|
B|----------------------------------------------|
G|----------------------------------------------|
D|----16-------14-------13-------11-------------|
A|-------x4-------x6-------x4-------x6----------|
E|----14-------12-------11-------9--------------|


Let Me GO, Cant You See ....


E|------------------------------|
B|------------------------------|
G|------------------------------|
D|----2----6----7----9----------|
A|----2----6----7----9----------|
E|----0----4----5----7----------|

your the next best thing to me!!!!



E|-------------------|
B|-------------------|
G|-------------------|
D|----4----6----7----|
A|----4----6----7----|
E|----2----4----5----|

Then The Tabs Go Back From The Beginning you just start from the beginning. Same Tabs
Throughout the whole song, theres still the last solo ill write it down here...


Solo:

E|---7-----------------------------------------------------------------------|
B|------5-7-9-9---9-10-9-10-12-10-9-10-9-7-5-7-9-7-5-0-----------------------|
G|---------------------------------------------------------------------------|



E|-----7-------------------12-11-9-11-9-7-5---------------------------------|
B|--------5-7-9---x6--------------------------------------------------------|
G|--------------------------------------------------------------------------|
Tap to rate this tab
 
# A B C D E F G H I J K L M N O P Q R S T U V W X Y Z