Song name
# A B C D E F G H I J K L M N O P Q R S T U V W X Y Z

Allister - Stuck tab

:----------------------------------------------------------------------------|
:-------14p13-------------14p13-------------14p13-------------13h14p13-------|
:-13-13-------15p13-13-13-------15p13-13-13-------15p13-13h15----------15p13-|
:----------------------------------------------------------------------------|
:----------------------------------------------------------------------------|
:----------------------------------------------------------------------------|

:----------------------------------------------------------------------------|
:-------14p13-------------14p13-------------14p13-------------13h14p13-------|
:-13-13-------15p13-13-13-------15p13-13-13-------15p13-13h15----------15p13-|
:----------------------------------------------------------------------------|
:----------------------------------------------------------------------------|
:----------------------------------------------------------------------------|

then go to verse

h- hammer on
p- pull off
Tap to rate this tab
# A B C D E F G H I J K L M N O P Q R S T U V W X Y Z